  0
SECTION
  2
HEADER
  9
$ACADVER
  1
AC1009
  9
$INSBASE
 10
0.0
 20
0.0
 30
0.0
  9
$EXTMIN
 10
-180.01098548994739
 20
-271.68557005312488
 30
-0.0015258207003583
  9
$EXTMAX
 10
180.01098716632811
 20
263.54811651401701
 30
0.0000000349246037
  9
$LIMMIN
 10
0.0
 20
0.0
  9
$LIMMAX
 10
0.0
 20
0.0
  9
$ORTHOMODE
 70
     0
  9
$REGENMODE
 70
     1
  9
$FILLMODE
 70
     1
  9
$QTEXTMODE
 70
     0
  9
$MIRRTEXT
 70
     1
  9
$DRAGMODE
 70
     2
  9
$LTSCALE
 40
10.16
  9
$OSMODE
 70
   231
  9
$ATTMODE
 70
     1
  9
$TEXTSIZE
 40
0.0
  9
$TRACEWID
 40
1.0
  9
$TEXTSTYLE
  7
STANDARD
  9
$CLAYER
  8
DATA
  9
$CELTYPE
  6
BYLAYER
  9
$CECOLOR
 62
   256
  9
$DIMSCALE
 40
1.0
  9
$DIMASZ
 40
0.18
  9
$DIMEXO
 40
0.0625
  9
$DIMDLI
 40
0.38
  9
$DIMRND
 40
0.0
  9
$DIMDLE
 40
0.0
  9
$DIMEXE
 40
0.18
  9
$DIMTP
 40
0.0
  9
$DIMTM
 40
0.0
  9
$DIMTXT
 40
0.18
  9
$DIMCEN
 40
0.09
  9
$DIMTSZ
 40
0.0
  9
$DIMTOL
 70
     0
  9
$DIMLIM
 70
     0
  9
$DIMTIH
 70
     1
  9
$DIMTOH
 70
     1
  9
$DIMSE1
 70
     0
  9
$DIMSE2
 70
     0
  9
$DIMTAD
 70
     0
  9
$DIMZIN
 70
     0
  9
$DIMBLK
  1

  9
$DIMASO
 70
     1
  9
$DIMSHO
 70
     1
  9
$DIMPOST
  1

  9
$DIMAPOST
  1

  9
$DIMALT
 70
     0
  9
$DIMALTD
 70
     2
  9
$DIMALTF
 40
25.399999999999999
  9
$DIMLFAC
 40
1.0
  9
$DIMTOFL
 70
     0
  9
$DIMTVP
 40
0.0
  9
$DIMTIX
 70
     0
  9
$DIMSOXD
 70
     0
  9
$DIMSAH
 70
     0
  9
$DIMBLK1
  1

  9
$DIMBLK2
  1

  9
$DIMSTYLE
  2
STANDARD
  9
$DIMCLRD
 70
     0
  9
$DIMCLRE
 70
     0
  9
$DIMCLRT
 70
     0
  9
$DIMTFAC
 40
1.0
  9
$DIMGAP
 40
0.09
  9
$LUNITS
 70
     2
  9
$LUPREC
 70
     4
  9
$SKETCHINC
 40
0.1
  9
$FILLETRAD
 40
0.0
  9
$AUNITS
 70
     0
  9
$AUPREC
 70
     0
  9
$MENU
  1
acad
  9
$ELEVATION
 40
0.0
  9
$PELEVATION
 40
0.0
  9
$THICKNESS
 40
0.0
  9
$LIMCHECK
 70
     0
  9
$BLIPMODE
 70
     0
  9
$CHAMFERA
 40
0.0
  9
$CHAMFERB
 40
0.0
  9
$SKPOLY
 70
     0
  9
$TDCREATE
 40
2456279.4994907412
  9
$TDUPDATE
 40
2456279.5046294448
  9
$TDINDWG
 40
0.0003014699
  9
$TDUSRTIMER
 40
0.0003014005
  9
$USRTIMER
 70
     1
  9
$ANGBASE
 50
0.0
  9
$ANGDIR
 70
     0
  9
$PDMODE
 70
     1
  9
$PDSIZE
 40
-2.0
  9
$PLINEWID
 40
0.0
  9
$COORDS
 70
     2
  9
$SPLFRAME
 70
     0
  9
$SPLINETYPE
 70
     6
  9
$SPLINESEGS
 70
     8
  9
$ATTDIA
 70
     0
  9
$ATTREQ
 70
     1
  9
$HANDLING
 70
     1
  9
$HANDSEED
  5
442
  9
$SURFTAB1
 70
     6
  9
$SURFTAB2
 70
     6
  9
$SURFTYPE
 70
     6
  9
$SURFU
 70
     6
  9
$SURFV
 70
     6
  9
$UCSNAME
  2

  9
$UCSORG
 10
0.0
 20
0.0
 30
0.0
  9
$UCSXDIR
 10
1.0
 20
0.0
 30
0.0
  9
$UCSYDIR
 10
0.0
 20
1.0
 30
0.0
  9
$PUCSNAME
  2

  9
$PUCSORG
 10
0.0
 20
0.0
 30
0.0
  9
$PUCSXDIR
 10
1.0
 20
0.0
 30
0.0
  9
$PUCSYDIR
 10
0.0
 20
1.0
 30
0.0
  9
$USERI1
 70
     0
  9
$USERI2
 70
     0
  9
$USERI3
 70
     0
  9
$USERI4
 70
     0
  9
$USERI5
 70
     0
  9
$USERR1
 40
0.0
  9
$USERR2
 40
0.0
  9
$USERR3
 40
0.0
  9
$USERR4
 40
0.0
  9
$USERR5
 40
0.0
  9
$WORLDVIEW
 70
     1
  9
$SHADEDGE
 70
     3
  9
$SHADEDIF
 70
    70
  9
$TILEMODE
 70
     1
  9
$MAXACTVP
 70
    64
  9
$PLIMCHECK
 70
     0
  9
$PEXTMIN
 10
1.0000000000000000E+020
 20
1.0000000000000000E+020
 30
1.0000000000000000E+020
  9
$PEXTMAX
 10
-1.0000000000000000E+020
 20
-1.0000000000000000E+020
 30
-1.0000000000000000E+020
  9
$PLIMMIN
 10
0.0
 20
0.0
  9
$PLIMMAX
 10
12.0
 20
9.0
  9
$UNITMODE
 70
     0
  9
$VISRETAIN
 70
     0
  9
$PLINEGEN
 70
     1
  9
$PSLTSCALE
 70
     0
  0
ENDSEC
  0
SECTION
  2
TABLES
  0
TABLE
  2
VPORT
 70
     1
  0
VPORT
  2
*ACTIVE
 70
     0
 10
0.0
 20
0.0
 11
1.0
 21
1.0
 12
0.000000838190374
 22
-3.5318137563878049
 13
0.0
 23
0.0
 14
1.0
 24
1.0
 15
0.0
 25
0.0
 16
0.0
 26
0.0
 36
1.0
 17
0.0
 27
0.0
 37
0.0
 40
539.31252800583354
 41
2.5684380032206109
 42
50.0
 43
0.0
 44
0.0
 50
0.0
 51
0.0
 71
     0
 72
  2000
 73
     1
 74
     1
 75
     0
 76
     0
 77
     0
 78
     0
  0
ENDTAB
  0
TABLE
  2
LTYPE
 70
    12
  0
LTYPE
  2
CONTINUOUS
 70
     0
  3
Solid line
 72
    65
 73
     0
 40
0.0
  0
LTYPE
  2
PHANTOM2
 70
     0
  3
___ _ _ ___ _ _ ___ _ _ ___ _ _
 72
    65
 73
     6
 40
1.25
 49
0.625
 49
-0.125
 49
0.125
 49
-0.125
 49
0.125
 49
-0.125
  0
LTYPE
  2
STYLE_06
 70
     0
  3

 72
    65
 73
     4
 40
1.0416412353515621
 49
0.625
 49
-0.208282470703125
 49
0.069427490234375
 49
-0.1389312744140625
  0
ENDTAB
  0
TABLE
  2
LAYER
 70
     5
  0
LAYER
  2
0
 70
     0
 62
     7
  6
CONTINUOUS
  0
LAYER
  2
DATA
 70
     0
 62
     7
  6
CONTINUOUS
  0
LAYER
  2
HIBINO-BASE
 70
     0
 62
     7
  6
CONTINUOUS
  0
LAYER
  2
SPEC
 70
     0
 62
     7
  6
CONTINUOUS
  0
LAYER
  2
DIMNSIONS
 70
     0
 62
     7
  6
CONTINUOUS
  0
ENDTAB
  0
TABLE
  2
STYLE
 70
     3
  0
STYLE
  2
STANDARD
 70
     0
 40
0.0
 41
1.0
 50
0.0
 71
     0
 42
0.0
  3
txt
  4
BIGFONT.SHX
  0
ENDTAB
  0
TABLE
  2
VIEW
 70
     0
  0
ENDTAB
  0
TABLE
  2
UCS
 70
     0
  0
ENDTAB
  0
TABLE
  2
APPID
 70
     4
  0
APPID
  2
ACAD
 70
     0
  0
APPID
  2
ACADANNOTATIVE
 70
     0
  0
APPID
  2
ACAD_NAV_VCDISPLAY
 70
     0
  0
APPID
  2
ACAD_MLEADERVER
 70
     0
  0
ENDTAB
  0
TABLE
  2
DIMSTYLE
 70
     2
  0
DIMSTYLE
  2
STANDARD
 70
     0
  3

  4

  5

  6

  7

 40
1.0
 41
0.18
 42
0.0625
 43
0.38
 44
0.18
 45
0.0
 46
0.0
 47
0.0
 48
0.0
140
0.18
141
0.09
142
0.0
143
25.399999999999999
144
1.0
145
0.0
146
1.0
147
0.09
 71
     0
 72
     0
 73
     1
 74
     1
 75
     0
 76
     0
 77
     0
 78
     0
170
     0
171
     2
172
     0
173
     0
174
     0
175
     0
176
     0
177
     0
178
     0
  0
ENDTAB
  0
ENDSEC
  0
SECTION
  2
BLOCKS
  0
BLOCK
  8
0
  2
$MODEL_SPACE
 70
     0
 10
0.0
 20
0.0
 30
0.0
  3
$MODEL_SPACE
  1

  0
ENDBLK
  5
297
  8
0
  0
BLOCK
 67
     1
  8
0
  2
$PAPER_SPACE
 70
     0
 10
0.0
 20
0.0
 30
0.0
  3
$PAPER_SPACE
  1

  0
ENDBLK
  5
293
 67
     1
  8
0
  0
ENDSEC
  0
SECTION
  2
ENTITIES
  0
LINE
  5
2C
  8
HIBINO-BASE
  6
CONTINUOUS
 62
     7
 10
-180.0
 20
263.53181500000011
 30
0.0
 11
180.0
 21
263.53181500000011
 31
0.0
  0
LINE
  5
2D
  8
HIBINO-BASE
  6
CONTINUOUS
 62
     7
 10
180.0
 20
-256.46818500000001
 30
0.0
 11
-180.0
 21
-256.46818500000001
 31
0.0
  0
LINE
  5
2E
  8
HIBINO-BASE
  6
CONTINUOUS
 62
     7
 10
-180.0
 20
-256.46818500000001
 30
0.0
 11
-180.0
 21
263.53181500000011
 31
0.0
  0
LINE
  5
2F
  8
HIBINO-BASE
  6
CONTINUOUS
 62
     7
 10
180.0
 20
263.53181500000011
 30
0.0
 11
180.0
 21
-256.46818500000001
 31
0.0
  0
LINE
  5
30
  8
HIBINO-BASE
  6
CONTINUOUS
 62
     7
 10
0.0000000000000142
 20
-211.46818500000001
 30
0.0
 11
180.0
 21
-211.46818500000001
 31
0.0
  0
LINE
  5
31
  8
HIBINO-BASE
  6
CONTINUOUS
 62
     7
 10
0.0000000000000142
 20
-256.46818500000001
 30
0.0
 11
0.0000000000000142
 21
-211.46818500000001
 31
0.0
  0
TEXT
  5
32
  8
HIBINO-BASE
 62
     7
 10
1.8000000000000249
 20
-216.48557166666669
 30
0.0
 40
3.2576822916666659
  1
NOTE
 41
0.7
 11
1.8000000000000249
 21
-213.22788937499999
 31
0.0
 73
     3
  0
LINE
  5
33
  8
HIBINO-BASE
  6
CONTINUOUS
 62
     7
 10
70.000000000000043
 20
-256.46818500000001
 30
0.0
 11
70.000000000000043
 21
-211.46818500000001
 31
0.0
  0
TEXT
  5
34
  8
HIBINO-BASE
 62
     7
 10
71.799999999999983
 20
-216.48557166666669
 30
0.0
 40
3.2576822916666659
  1
TITLE
 41
0.7
 11
71.799999999999983
 21
-213.22788937499999
 31
0.0
 73
     3
  0
LINE
  5
35
  8
HIBINO-BASE
  6
CONTINUOUS
 62
     7
 10
0.0000000000000142
 20
-236.46818500000001
 30
0.0
 11
180.0
 21
-236.46818500000001
 31
0.0
  0
TEXT
  5
36
  8
HIBINO-BASE
 62
     7
 10
96.799999999999983
 20
-241.37293166666669
 30
0.0
 40
3.2576822916666659
  1
DRAWN
 41
0.7
 11
96.799999999999983
 21
-238.11524937499999
 31
0.0
 73
     3
  0
TEXT
  5
37
  8
HIBINO-BASE
 62
     7
 10
46.79999999999999
 20
-241.37293166666669
 30
0.0
 40
3.2576822916666659
  1
DATE
 41
0.7
 11
46.79999999999999
 21
-238.11524937499999
 31
0.0
 73
     3
  0
TEXT
  5
38
  8
HIBINO-BASE
 62
     7
 10
26.800000000000001
 20
-241.37293166666669
 30
0.0
 40
3.2576822916666659
  1
SCALE
 41
0.7
 11
26.800000000000001
 21
-238.11524937499999
 31
0.0
 73
     3
  0
TEXT
  5
39
  8
HIBINO-BASE
 62
     7
 10
71.799999999999983
 20
-241.37293166666669
 30
0.0
 40
3.2576822916666659
  1
DESIGN
 41
0.7
 11
71.799999999999983
 21
-238.11524937499999
 31
0.0
 73
     3
  0
TEXT
  5
3A
  8
HIBINO-BASE
 62
     7
 10
146.7999999999999
 20
-241.37293166666669
 30
0.0
 40
3.2576822916666659
  1
DRAWING NO.
 41
0.7
 11
146.7999999999999
 21
-238.11524937499999
 31
0.0
 73
     3
  0
TEXT
  5
3B
  8
HIBINO-BASE
 62
     7
 10
121.7999999999999
 20
-241.37293166666669
 30
0.0
 40
3.2576822916666659
  1
CHECK
 41
0.7
 11
121.7999999999999
 21
-238.11524937499999
 31
0.0
 73
     3
  0
LINE
  5
3C
  8
HIBINO-BASE
  6
CONTINUOUS
 62
     7
 10
28.750000000000011
 20
-253.96818500000001
 30
0.0
 11
36.250000000000028
 21
-246.46818500000001
 31
0.0
  0
TEXT
  5
3D
  8
HIBINO-BASE
 62
     7
 10
27.500000000000011
 20
-248.68607166666661
 30
0.0
 40
3.2576822916666659
  1
1
 41
0.7
 11
27.500000000000011
 21
-245.42838937499999
 31
0.0
 73
     3
  0
LINE
  5
3E
  8
HIBINO-BASE
  6
CONTINUOUS
 62
     7
 10
25.000000000000011
 20
-256.46818500000001
 30
0.0
 11
25.000000000000011
 21
-236.46818500000001
 31
0.0
  0
LINE
  5
3F
  8
HIBINO-BASE
  6
CONTINUOUS
 62
     7
 10
44.999999999999993
 20
-256.46818500000001
 30
0.0
 11
44.999999999999993
 21
-236.46818500000001
 31
0.0
  0
LINE
  5
40
  8
HIBINO-BASE
  6
CONTINUOUS
 62
     7
 10
94.999999999999957
 20
-236.46818500000001
 30
0.0
 11
94.999999999999957
 21
-256.46818500000001
 31
0.0
  0
LINE
  5
41
  8
HIBINO-BASE
  6
CONTINUOUS
 62
     7
 10
145.0
 20
-236.46818500000001
 30
0.0
 11
145.0
 21
-256.46818500000001
 31
0.0
  0
LINE
  5
42
  8
HIBINO-BASE
  6
CONTINUOUS
 62
     7
 10
119.9999999999999
 20
-256.46818500000001
 30
0.0
 11
119.9999999999999
 21
-236.46818500000001
 31
0.0
  0
TEXT
  5
43
  8
HIBINO-BASE
 62
     7
 10
46.713080000000019
 20
-250.7408916666667
 30
0.0
 40
3.2576822916666659
  1
'12.12.
 41
0.7
 11
46.713080000000019
 21
-247.483209375
 31
0.0
 73
     3
  0
TEXT
  5
44
  8
HIBINO-BASE
 62
     7
 10
35.000000000000007
 20
-252.43607166666669
 30
0.0
 40
3.2576822916666659
  1
2
 41
0.7
 11
35.000000000000007
 21
-249.17838937499999
 31
0.0
 73
     3
  0
TEXT
  5
45
  8
HIBINO-BASE
 62
     7
 10
98.011620022069224
 20
-250.7408916666667
 30
0.0
 40
3.2576822916666659
  1
N.Sasaki
 41
0.7
 11
98.011620022069224
 21
-247.483209375
 31
0.0
 73
     3
  0
TEXT
  5
46
  8
HIBINO-BASE
 62
     7
 10
7.7666666666667208
 20
-252.51618500000001
 30
0.0
 40
6.5153645833333318
  1
A4
 41
0.7
 11
7.7666666666667208
 21
-246.00082041666661
 31
0.0
 73
     3
  0
TEXT
  5
47
  8
HIBINO-BASE
 62
     7
 10
1.916666666666671
 20
-241.7070949999999
 30
0.0
 40
3.2576822916666659
  1
PAPER SIZE
 41
0.7
 11
1.916666666666671
 21
-238.44941270833331
 31
0.0
 73
     3
  0
TEXT
  5
48
  8
HIBINO-BASE
 62
     7
 10
-165.63199999999989
 20
-269.28554059999988
 30
0.0
 40
7.2000883593749991
  1
Hibino Corporation
 41
0.7
 11
-165.63199999999989
 21
-262.08545224062487
 31
0.0
 73
     3
  0
TEXT
  5
49
  8
HIBINO-BASE
 62
     7
 10
100.13678
 20
-269.28554059999988
 30
0.0
 40
7.2000883593749991
  1
ヒビノ株式会社
 41
0.7
 11
100.13678
 21
-262.08545224062487
 31
0.0
 73
     3
  0
LINE
  5
4A
  8
SPEC
  6
CONTINUOUS
 62
     7
 10
-164.99999999999989
 20
243.53181499999999
 30
0.0
 11
130.0
 21
243.53181499999999
 31
0.0
  0
LINE
  5
4B
  8
SPEC
  6
CONTINUOUS
 62
     7
 10
-164.99999999999989
 20
236.03181499999999
 30
0.0
 11
130.0
 21
236.03181499999999
 31
0.0
  0
LINE
  5
4C
  8
SPEC
  6
CONTINUOUS
 62
     7
 10
-164.99999999999989
 20
221.03181499999999
 30
0.0
 11
130.0
 21
221.03181499999999
 31
0.0
  0
LINE
  5
4D
  8
SPEC
  6
CONTINUOUS
 62
     7
 10
-164.99999999999989
 20
228.53181499999999
 30
0.0
 11
130.0
 21
228.53181499999999
 31
0.0
  0
LINE
  5
4E
  8
SPEC
  6
CONTINUOUS
 62
     7
 10
-164.99999999999989
 20
243.53181499999999
 30
0.0
 11
-164.99999999999989
 21
221.03181499999999
 31
0.0
  0
TEXT
  5
4F
  8
SPEC
 62
     7
 10
-162.49999999999989
 20
246.318355
 30
0.0
 40
4.8865234375000002
  1
仕様
 41
0.7
 11
-162.49999999999989
 21
251.20487843750001
 31
0.0
 73
     3
  0
LINE
  5
50
  8
SPEC
  6
CONTINUOUS
 62
     7
 10
-99.999999999999957
 20
243.53181499999999
 30
0.0
 11
-99.999999999999957
 21
221.03181499999999
 31
0.0
  0
LINE
  5
51
  8
SPEC
  6
CONTINUOUS
 62
     7
 10
130.0
 20
243.53181499999999
 30
0.0
 11
130.0
 21
221.03181499999999
 31
0.0
  0
TEXT
  5
52
  8
SPEC
 62
     7
 10
-163.19999999999999
 20
237.60765499999991
 30
0.0
 40
3.8006293402777769
  1
寸法（\U+03C6\U+00D7全長)
 41
0.7
 11
-163.19999999999999
 21
241.4082843402777
 31
0.0
 73
     3
  0
TEXT
  5
53
  8
SPEC
 62
     7
 10
-163.19999999999999
 20
230.10766264444439
 30
0.0
 40
3.8006224999999989
  1
質量
 41
0.7
 11
-163.19999999999999
 21
233.90828514444439
 31
0.0
 73
     3
  0
TEXT
  5
54
  8
SPEC
 62
     7
 10
-98.200000000000003
 20
237.60765499999991
 30
0.0
 40
3.8006293402777769
  1
\U+03C665.1\U+00D742.0mm
 41
0.7
 11
-98.200000000000003
 21
241.4082843402777
 31
0.0
 73
     3
  0
TEXT
  5
55
  8
SPEC
 62
     7
 10
-98.200000000000003
 20
230.10766264444439
 30
0.0
 40
3.8006224999999989
  1
4g
 41
0.7
 11
-98.200000000000003
 21
233.90828514444439
 31
0.0
 73
     3
  0
TEXT
  5
56
  8
SPEC
 62
     7
 10
-163.19999999999999
 20
222.60766264444439
 30
0.0
 40
3.8006224999999989
  1
付属品
 41
0.7
 11
-163.19999999999999
 21
226.40828514444439
 31
0.0
 73
     3
  0
TEXT
  5
57
  8
SPEC
 62
     7
 10
-98.200000000000003
 20
222.60766264444439
 30
0.0
 40
3.8006224999999989
  1
プリアンプ固定ねじ\U+00D73、卓上固定ねじ\U+00D73、ホールキャップ
 41
0.7
 11
-98.200000000000003
 21
226.40828514444439
 31
0.0
 73
     3
  0
TEXT
  5
58
  8
DIMNSIONS
 62
     7
 10
-40.0
 20
-231.929205
 30
0.0
 40
4.8865234375000002
  1
(単位：mm)
 41
0.7
 11
-40.0
 21
-227.04268156250001
 31
0.0
 73
     3
  0
LINE
  5
59
  8
DIMNSIONS
  6
CONTINUOUS
 62
     7
 10
-36.5
 20
21.999999999999989
 30
0.0
 11
-54.0
 21
21.999999999999989
 31
0.0
  0
LINE
  5
5A
  8
DIMNSIONS
  6
CONTINUOUS
 62
     7
 10
-14.75
 20
-20.000000000000011
 30
0.0
 11
-54.0
 21
-20.000000000000011
 31
0.0
  0
LINE
  5
5B
  8
DIMNSIONS
  6
CONTINUOUS
 62
     7
 10
-50.0
 20
21.999999999999989
 30
0.0
 11
-50.0
 21
-20.000000000000011
 31
0.0
  0
LINE
  5
5C
  8
DIMNSIONS
  6
CONTINUOUS
 62
     7
 10
-50.0
 20
21.999999999999989
 30
0.0
 11
-48.659920409699531
 21
16.998754882812481
 31
0.0
  0
LINE
  5
5D
  8
DIMNSIONS
  6
CONTINUOUS
 62
     7
 10
-50.0
 20
21.999999999999989
 30
0.0
 11
-51.340079590300469
 21
16.998754882812481
 31
0.0
  0
LINE
  5
5E
  8
DIMNSIONS
  6
CONTINUOUS
 62
     7
 10
-50.0
 20
-20.000000000000011
 30
0.0
 11
-51.340079590300469
 21
-14.998754882812509
 31
0.0
  0
LINE
  5
5F
  8
DIMNSIONS
  6
CONTINUOUS
 62
     7
 10
-50.0
 20
-20.000000000000011
 30
0.0
 11
-48.659920409699531
 21
-14.998754882812509
 31
0.0
  0
TEXT
  5
60
  8
DIMNSIONS
 62
     7
 10
-51.487777777777787
 20
-6.0555555555555696
 30
0.0
 40
5.4294704861111107
  1
42.0
 50
90.0
 41
0.7
 11
-56.917248263888901
 21
-6.0555555555555687
 31
0.0
 73
     3
  0
LINE
  5
61
  8
DIMNSIONS
  6
CONTINUOUS
 62
     7
 10
-24.29999999999999
 20
5.9999999999999831
 30
0.0
 11
-24.29999999999999
 21
-44.0
 31
0.0
  0
LINE
  5
62
  8
DIMNSIONS
  6
CONTINUOUS
 62
     7
 10
24.29999999999999
 20
5.9999999999999831
 30
0.0
 11
24.29999999999999
 21
-44.0
 31
0.0
  0
LINE
  5
63
  8
DIMNSIONS
  6
CONTINUOUS
 62
     7
 10
-24.29999999999999
 20
-40.0
 30
0.0
 11
24.29999999999999
 21
-40.0
 31
0.0
  0
LINE
  5
64
  8
DIMNSIONS
  6
CONTINUOUS
 62
     7
 10
-24.29999999999999
 20
-40.0
 30
0.0
 11
-19.298754882812482
 21
-38.659920409699531
 31
0.0
  0
LINE
  5
65
  8
DIMNSIONS
  6
CONTINUOUS
 62
     7
 10
-24.29999999999999
 20
-40.0
 30
0.0
 11
-19.298754882812482
 21
-41.340079590300469
 31
0.0
  0
LINE
  5
66
  8
DIMNSIONS
  6
CONTINUOUS
 62
     7
 10
24.29999999999999
 20
-40.0
 30
0.0
 11
19.298754882812482
 21
-41.340079590300491
 31
0.0
  0
LINE
  5
67
  8
DIMNSIONS
  6
CONTINUOUS
 62
     7
 10
24.29999999999999
 20
-40.0
 30
0.0
 11
19.298754882812482
 21
-38.659920409699531
 31
0.0
  0
TEXT
  5
68
  8
DIMNSIONS
 62
     7
 10
-7.0555555555555554
 20
-38.512222222222221
 30
0.0
 40
5.4294704861111107
  1
48.6
 41
0.7
 11
-7.0555555555555554
 21
-33.082751736111113
 31
0.0
 73
     3
  0
LINE
  5
69
  8
DIMNSIONS
  6
CONTINUOUS
 62
     7
 10
26.107079991754059
 20
-106.42931351774681
 30
0.0
 11
45.0
 21
-115.0000000000001
 31
0.0
  0
LINE
  5
6A
  8
DIMNSIONS
  6
CONTINUOUS
 62
     7
 10
26.107079991754059
 20
-106.42931351774681
 30
0.0
 11
31.22100422513115
 21
-107.2392795453122
 31
0.0
  0
LINE
  5
6B
  8
DIMNSIONS
  6
CONTINUOUS
 62
     7
 10
26.107079991754059
 20
-106.42931351774681
 30
0.0
 11
30.130885277104721
 21
-109.6877267905094
 31
0.0
  0
LINE
  5
6C
  8
DIMNSIONS
  6
CONTINUOUS
 62
     7
 10
45.0
 20
-115.0000000000001
 30
0.0
 11
73.694444444444457
 21
-115.0000000000001
 31
0.0
  0
TEXT
  5
6D
  8
DIMNSIONS
 62
     7
 10
49.000000000000007
 20
-113.51222222222231
 30
0.0
 40
5.4294704861111107
  1
3-\U+03C63.2
 41
0.7
 11
49.000000000000007
 21
-108.08275173611121
 31
0.0
 73
     3
  0
LINE
  5
6E
  8
DIMNSIONS
  6
CONTINUOUS
 62
     7
 10
33.774990747593108
 20
-100.5
 30
0.0
 11
46.765371804359681
 21
-93.0
 31
0.0
  0
LINE
  5
6F
  8
DIMNSIONS
  6
CONTINUOUS
 62
     7
 10
-33.774990747593087
 20
-100.5
 30
0.0
 11
-46.765371804359681
 21
-92.999999999999986
 31
0.0
  0
ARC
  5
70
  8
DIMNSIONS
  6
CONTINUOUS
 62
     7
 10
0.0000000000000005
 20
-120.0
 30
0.0
 40
50.0
 50
30.0
 51
150.0
  0
LINE
  5
71
  8
DIMNSIONS
  6
CONTINUOUS
 62
     7
 10
-43.301270189221931
 20
-95.0
 30
0.0
 11
-41.961190598921448
 21
-89.998754882812506
 31
0.0
  0
LINE
  5
72
  8
DIMNSIONS
  6
CONTINUOUS
 62
     7
 10
-43.301270189221931
 20
-95.0
 30
0.0
 11
-39.640104662334927
 21
-91.338834473112982
 31
0.0
  0
LINE
  5
73
  8
DIMNSIONS
  6
CONTINUOUS
 62
     7
 10
43.301270189221931
 20
-95.0
 30
0.0
 11
39.640104662334927
 21
-91.338834473112982
 31
0.0
  0
LINE
  5
74
  8
DIMNSIONS
  6
CONTINUOUS
 62
     7
 10
43.301270189221931
 20
-95.0
 30
0.0
 11
41.961190598921448
 21
-89.998754882812506
 31
0.0
  0
TEXT
  5
75
  8
DIMNSIONS
 62
     7
 10
-12.347222222222211
 20
-68.512222222222221
 30
0.0
 40
5.4294704861111107
  1
120.0\U+00B0
 41
0.7
 11
-12.347222222222211
 21
-63.082751736111113
 31
0.0
 73
     3
  0
LINE
  5
76
  8
DIMNSIONS
  6
CONTINUOUS
 62
     7
 10
26.039999999999999
 20
70.469999999999999
 30
0.0
 11
40.0
 21
60.0
 31
0.0
  0
LINE
  5
77
  8
DIMNSIONS
  6
CONTINUOUS
 62
     7
 10
26.039999999999999
 20
70.469999999999999
 30
0.0
 11
30.87377131291618
 21
68.61448903938556
 31
0.0
  0
LINE
  5
78
  8
DIMNSIONS
  6
CONTINUOUS
 62
     7
 10
26.039999999999999
 20
70.469999999999999
 30
0.0
 11
29.298413272762652
 21
66.446194714649337
 31
0.0
  0
LINE
  5
79
  8
DIMNSIONS
  6
CONTINUOUS
 62
     7
 10
40.0
 20
60.0
 30
0.0
 11
65.166666666666671
 21
60.0
 31
0.0
  0
TEXT
  5
7A
  8
DIMNSIONS
 62
     7
 10
44.0
 20
61.987777777777772
 30
0.0
 40
5.4294704861111107
  1
\U+03C665.1
 41
0.7
 11
44.0
 21
67.417248263888879
 31
0.0
 73
     3
  0
LINE
  5
7B
  8
DIMNSIONS
  6
CONTINUOUS
 62
     7
 10
2.0000000000000142
 20
-123.46410161513769
 30
0.0
 11
29.655444566227761
 21
-171.36473670974871
 31
0.0
  0
LINE
  5
7C
  8
DIMNSIONS
  6
CONTINUOUS
 62
     7
 10
26.649999999999999
 20
-109.2324174796134
 30
0.0
 11
54.305444566227742
 21
-157.13305257422439
 31
0.0
  0
LINE
  5
7D
  8
DIMNSIONS
  6
CONTINUOUS
 62
     7
 10
27.655444566227761
 20
-167.90063509461089
 30
0.0
 11
52.305444566227742
 21
-153.6689509590866
 31
0.0
  0
LINE
  5
7E
  8
DIMNSIONS
  6
CONTINUOUS
 62
     7
 10
27.655444566227761
 20
-167.90063509461089
 30
0.0
 11
31.316610093114772
 21
-164.23946956772389
 31
0.0
  0
LINE
  5
7F
  8
DIMNSIONS
  6
CONTINUOUS
 62
     7
 10
27.655444566227761
 20
-167.90063509461089
 30
0.0
 11
32.656689683415252
 21
-166.56055550431051
 31
0.0
  0
LINE
  5
80
  8
DIMNSIONS
  6
CONTINUOUS
 62
     7
 10
52.305444566227742
 20
-153.6689509590866
 30
0.0
 11
48.708732801393133
 21
-157.39345502154001
 31
0.0
  0
LINE
  5
81
  8
DIMNSIONS
  6
CONTINUOUS
 62
     7
 10
52.305444566227742
 20
-153.6689509590866
 30
0.0
 11
47.328348776563892
 21
-155.0961102112523
 31
0.0
  0
TEXT
  5
82
  8
DIMNSIONS
 62
     7
 10
32.876265328415329
 20
-162.59110475199279
 30
0.0
 40
5.4294704861111107
  1
28.5
 50
30.000000000000071
 41
0.7
 11
30.161530085359761
 21
-157.88904538192281
 31
0.0
 73
     3
  0
TEXT
  5
83
  8
DATA
 62
     7
 10
-175.0
 20
-240.7156294444444
 30
0.0
 40
3.8006293402777769
  1
※仕様及び外観は予告なく変更されることがあります。
 41
0.7
 11
-175.0
 21
-236.91500010416669
 31
0.0
 73
     3
  0
TEXT
  5
84
  8
DATA
 62
     7
 10
-175.0
 20
-245.65451833333341
 30
0.0
 40
3.8006293402777769
  1
　また、同一商品でも若干の個体差があることがあります。ご了承ください。
 41
0.7
 11
-175.0
 21
-241.85388899305559
 31
0.0
 73
     3
  0
TEXT
  5
85
  8
DATA
 62
     7
 10
99.999999999999957
 20
-234.20640499999999
 30
0.0
 40
4.8865234375000002
  1
MF M
 41
0.7
 11
99.999999999999957
 21
-229.3198815625
 31
0.0
 73
     3
  0
TEXT
  5
86
  8
DATA
 62
     7
 10
99.999999999999957
 20
-219.70640499999999
 30
0.0
 40
4.8865234375000002
  1
AKG
 41
0.7
 11
99.999999999999957
 21
-214.8198815625
 31
0.0
 73
     3
  0
TEXT
  5
87
  8
DATA
 62
     7
 10
94.999999999999957
 20
-226.660315
 30
0.0
 40
3.2576822916666659
  1
ショックマウント
 41
0.7
 11
94.999999999999957
 21
-223.40263270833341
 31
0.0
 73
     3
  0
CIRCLE
  5
88
  8
DATA
  6
CONTINUOUS
 62
     7
 10
0.0
 20
90.0
 30
0.0
 40
32.549999999999997
  0
CIRCLE
  5
89
  8
DATA
  6
CONTINUOUS
 62
     7
 10
0.0
 20
90.0
 30
0.0
 40
21.000000000000028
  0
CIRCLE
  5
8A
  8
DATA
  6
CONTINUOUS
 62
     7
 10
0.0
 20
90.0
 30
0.0
 40
20.000000000000028
  0
CIRCLE
  5
8B
  8
DATA
  6
CONTINUOUS
 62
     7
 10
0.0
 20
90.0
 30
0.0
 40
10.50000000000002
  0
LINE
  5
8C
  8
DATA
  6
CONTINUOUS
 62
     7
 10
-32.54999999999999
 20
19.799999999999979
 30
0.0
 11
32.550000000000011
 21
19.799999999999979
 31
0.0
  0
LINE
  5
8D
  8
DATA
  6
CONTINUOUS
 62
     7
 10
-24.399999999999999
 20
9.7999999999999847
 30
0.0
 11
24.399999999999999
 21
9.7999999999999847
 31
0.0
  0
LINE
  5
8E
  8
DATA
  6
CONTINUOUS
 62
     7
 10
-24.399999999999999
 20
9.7999999999999847
 30
0.0
 11
-24.399999999999999
 21
19.799999999999979
 31
0.0
  0
LINE
  5
8F
  8
DATA
  6
CONTINUOUS
 62
     7
 10
24.399999999999999
 20
9.7999999999999847
 30
0.0
 11
24.399999999999999
 21
19.799999999999979
 31
0.0
  0
LINE
  5
90
  8
DATA
  6
CONTINUOUS
 62
     7
 10
-10.799999999999979
 20
-20.000000000000011
 30
0.0
 11
10.80000000000001
 21
-20.000000000000011
 31
0.0
  0
LINE
  5
91
  8
DATA
  6
CONTINUOUS
 62
     7
 10
-10.799999999999979
 20
-20.000000000000011
 30
0.0
 11
-10.799999999999979
 21
9.7999999999999847
 31
0.0
  0
LINE
  5
92
  8
DATA
  6
CONTINUOUS
 62
     7
 10
10.80000000000001
 20
-20.000000000000011
 30
0.0
 11
10.80000000000001
 21
9.7999999999999847
 31
0.0
  0
LINE
  5
93
  8
DATA
  6
CONTINUOUS
 62
     7
 10
-32.54999999999999
 20
21.999999999999989
 30
0.0
 11
32.550000000000011
 21
21.999999999999989
 31
0.0
  0
LINE
  5
94
  8
DATA
  6
CONTINUOUS
 62
     7
 10
32.550000000000011
 20
21.999999999999989
 30
0.0
 11
32.550000000000011
 21
19.799999999999979
 31
0.0
  0
LINE
  5
95
  8
DATA
  6
CONTINUOUS
 62
     7
 10
-32.54999999999999
 20
21.999999999999989
 30
0.0
 11
-32.54999999999999
 21
19.799999999999979
 31
0.0
  0
CIRCLE
  5
96
  8
DATA
  6
CONTINUOUS
 62
     7
 10
0.0000000000000041
 20
-120.0
 30
0.0
 40
10.800000000000001
  0
CIRCLE
  5
97
  8
DATA
  6
CONTINUOUS
 62
     7
 10
0.0000000000000041
 20
-120.0
 30
0.0
 40
8.7999999999999847
  0
CIRCLE
  5
98
  8
DATA
  6
CONTINUOUS
 62
     7
 10
0.0000000000000041
 20
-120.0
 30
0.0
 40
24.399999999999999
  0
CIRCLE
  5
99
  8
DATA
  6
CONTINUOUS
 62
     7
 10
0.0000000000000041
 20
-120.0
 30
0.0
 40
12.00000000000003
  0
CIRCLE
  5
9A
  8
DATA
  6
CONTINUOUS
 62
     7
 10
13.82468245269453
 20
-112.0183158644757
 30
0.0
 40
3.4999999999999911
  0
CIRCLE
  5
9B
  8
DATA
  6
CONTINUOUS
 62
     7
 10
13.82468245269447
 20
-112.0183158644757
 30
0.0
 40
1.5
  0
POLYLINE
  5
9C
  8
DATA
  6
CONTINUOUS
 62
     7
 66
     1
 10
0.0
 20
0.0
 30
0.0
  0
VERTEX
  5
2C7
  8
DATA
  6
CONTINUOUS
 62
     7
 10
-15.789419162443229
 20
-125.6519237886467
 30
0.0
  0
VERTEX
  5
2C8
  8
DATA
  6
CONTINUOUS
 62
     7
 10
-14.05736835487437
 20
-124.6519237886467
 30
0.0
  0
VERTEX
  5
2C9
  8
DATA
  6
CONTINUOUS
 62
     7
 10
-11.05736835487437
 20
-129.84807621135329
 30
0.0
  0
VERTEX
  5
2CA
  8
DATA
  6
CONTINUOUS
 62
     7
 10
-12.789419162443229
 20
-130.84807621135329
 30
0.0
  0
SEQEND
  5
2CB
  8
DATA
  6
CONTINUOUS
 62
     7
  0
POLYLINE
  5
A3
  8
DATA
  6
CONTINUOUS
 62
     7
 66
     1
 10
0.0
 20
0.0
 30
0.0
  0
VERTEX
  5
2CC
  8
DATA
  6
CONTINUOUS
 62
     7
 10
-14.521469970012131
 20
-131.84807621135329
 30
0.0
  0
VERTEX
  5
2CD
  8
DATA
  6
CONTINUOUS
 62
     7
 10
-16.253520777580999
 20
-132.84807621135329
 30
0.0
  0
VERTEX
  5
2CE
  8
DATA
  6
CONTINUOUS
 62
     7
 10
-19.253520777580999
 20
-127.6519237886467
 30
0.0
  0
VERTEX
  5
2CF
  8
DATA
  6
CONTINUOUS
 62
     7
 10
-17.521469970012131
 20
-126.6519237886467
 30
0.0
  0
SEQEND
  5
2D0
  8
DATA
  6
CONTINUOUS
 62
     7
  0
LINE
  5
AA
  8
DATA
  6
CONTINUOUS
 62
     7
 10
-15.789419162443229
 20
-125.6519237886467
 30
0.0
 11
-14.84843615681819
 21
-127.2817541634481
 31
0.0
  0
LINE
  5
AB
  8
DATA
  6
CONTINUOUS
 62
     7
 10
-13.73040216806827
 20
-129.2182458365518
 30
0.0
 11
-12.789419162443229
 21
-130.84807621135329
 31
0.0
  0
LINE
  5
AC
  8
DATA
  6
CONTINUOUS
 62
     7
 10
-17.521469970012131
 20
-126.6519237886467
 30
0.0
 11
-16.58048696438706
 21
-128.28175416344811
 31
0.0
  0
LINE
  5
AD
  8
DATA
  6
CONTINUOUS
 62
     7
 10
-15.46245297563717
 20
-130.2182458365518
 30
0.0
 11
-14.521469970012131
 21
-131.84807621135329
 31
0.0
  0
ARC
  5
AE
  8
DATA
  6
CONTINUOUS
 62
     7
 10
-15.155444566227681
 20
-128.75
 30
0.0
 40
1.5000000000000011
 50
161.81031489577731
 51
258.18968510422121
  0
ARC
  5
AF
  8
DATA
  6
CONTINUOUS
 62
     7
 10
-15.155444566227681
 20
-128.75
 30
0.0
 40
1.4999999999999829
 50
341.8103148957793
 51
78.18968510422161
  0
POLYLINE
  5
B0
  8
DATA
  6
CONTINUOUS
 62
     7
 66
     1
 10
0.0
 20
0.0
 30
0.0
  0
VERTEX
  5
2D1
  8
DATA
  6
CONTINUOUS
 62
     7
 10
12.78941916244324
 20
-130.84807621135329
 30
0.0
  0
VERTEX
  5
2D2
  8
DATA
  6
CONTINUOUS
 62
     7
 10
11.05736835487434
 20
-129.84807621135329
 30
0.0
  0
VERTEX
  5
2D3
  8
DATA
  6
CONTINUOUS
 62
     7
 10
14.057368354874351
 20
-124.6519237886467
 30
0.0
  0
VERTEX
  5
2D4
  8
DATA
  6
CONTINUOUS
 62
     7
 10
15.78941916244324
 20
-125.6519237886467
 30
0.0
  0
SEQEND
  5
2D5
  8
DATA
  6
CONTINUOUS
 62
     7
  0
POLYLINE
  5
B7
  8
DATA
  6
CONTINUOUS
 62
     7
 66
     1
 10
0.0
 20
0.0
 30
0.0
  0
VERTEX
  5
2D6
  8
DATA
  6
CONTINUOUS
 62
     7
 10
17.521469970012131
 20
-126.6519237886467
 30
0.0
  0
VERTEX
  5
2D7
  8
DATA
  6
CONTINUOUS
 62
     7
 10
19.253520777580981
 20
-127.6519237886467
 30
0.0
  0
VERTEX
  5
2D8
  8
DATA
  6
CONTINUOUS
 62
     7
 10
16.25352077758097
 20
-132.84807621135329
 30
0.0
  0
VERTEX
  5
2D9
  8
DATA
  6
CONTINUOUS
 62
     7
 10
14.52146997001214
 20
-131.84807621135329
 30
0.0
  0
SEQEND
  5
2DA
  8
DATA
  6
CONTINUOUS
 62
     7
  0
LINE
  5
BE
  8
DATA
  6
CONTINUOUS
 62
     7
 10
12.78941916244324
 20
-130.84807621135329
 30
0.0
 11
13.730402168068309
 21
-129.21824583655189
 31
0.0
  0
LINE
  5
BF
  8
DATA
  6
CONTINUOUS
 62
     7
 10
14.84843615681817
 20
-127.2817541634481
 30
0.0
 11
15.78941916244324
 21
-125.6519237886467
 31
0.0
  0
LINE
  5
C0
  8
DATA
  6
CONTINUOUS
 62
     7
 10
14.52146997001214
 20
-131.84807621135329
 30
0.0
 11
15.46245297563715
 21
-130.21824583655189
 31
0.0
  0
LINE
  5
C1
  8
DATA
  6
CONTINUOUS
 62
     7
 10
16.58048696438707
 20
-128.2817541634482
 30
0.0
 11
17.521469970012131
 21
-126.6519237886467
 31
0.0
  0
ARC
  5
C2
  8
DATA
  6
CONTINUOUS
 62
     7
 10
15.15544456622766
 20
-128.75
 30
0.0
 40
1.5000000000000311
 50
281.81031489577839
 51
18.189685104220299
  0
ARC
  5
C3
  8
DATA
  6
CONTINUOUS
 62
     7
 10
15.15544456622766
 20
-128.75
 30
0.0
 40
1.499999999999976
 50
101.8103148957788
 51
198.18968510422289
  0
POLYLINE
  5
C4
  8
DATA
  6
CONTINUOUS
 62
     7
 66
     1
 10
0.0
 20
0.0
 30
0.0
  0
VERTEX
  5
2DB
  8
DATA
  6
CONTINUOUS
 62
     7
 10
3.000000000000032
 20
-103.5
 30
0.0
  0
VERTEX
  5
2DC
  8
DATA
  6
CONTINUOUS
 62
     7
 10
3.0000000000000031
 20
-105.5
 30
0.0
  0
VERTEX
  5
2DD
  8
DATA
  6
CONTINUOUS
 62
     7
 10
-2.999999999999968
 20
-105.5
 30
0.0
  0
VERTEX
  5
2DE
  8
DATA
  6
CONTINUOUS
 62
     7
 10
-2.999999999999968
 20
-103.5
 30
0.0
  0
SEQEND
  5
2DF
  8
DATA
  6
CONTINUOUS
 62
     7
  0
POLYLINE
  5
CB
  8
DATA
  6
CONTINUOUS
 62
     7
 66
     1
 10
0.0
 20
0.0
 30
0.0
  0
VERTEX
  5
2E0
  8
DATA
  6
CONTINUOUS
 62
     7
 10
-2.999999999999968
 20
-101.5
 30
0.0
  0
VERTEX
  5
2E1
  8
DATA
  6
CONTINUOUS
 62
     7
 10
-2.999999999999968
 20
-99.500000000000043
 30
0.0
  0
VERTEX
  5
2E2
  8
DATA
  6
CONTINUOUS
 62
     7
 10
3.0000000000000031
 20
-99.500000000000014
 30
0.0
  0
VERTEX
  5
2E3
  8
DATA
  6
CONTINUOUS
 62
     7
 10
3.000000000000032
 20
-101.5
 30
0.0
  0
SEQEND
  5
2E4
  8
DATA
  6
CONTINUOUS
 62
     7
  0
LINE
  5
D2
  8
DATA
  6
CONTINUOUS
 62
     7
 10
3.000000000000032
 20
-103.5
 30
0.0
 11
1.118033988749918
 21
-103.5
 31
0.0
  0
LINE
  5
D3
  8
DATA
  6
CONTINUOUS
 62
     7
 10
-1.1180339887498529
 20
-103.5
 30
0.0
 11
-2.999999999999968
 21
-103.5
 31
0.0
  0
LINE
  5
D4
  8
DATA
  6
CONTINUOUS
 62
     7
 10
3.000000000000032
 20
-101.5
 30
0.0
 11
1.118033988749946
 21
-101.5
 31
0.0
  0
LINE
  5
D5
  8
DATA
  6
CONTINUOUS
 62
     7
 10
-1.1180339887498529
 20
-101.5
 30
0.0
 11
-2.999999999999968
 21
-101.5
 31
0.0
  0
ARC
  5
D6
  8
DATA
  6
CONTINUOUS
 62
     7
 10
0.0000000000000325
 20
-102.5
 30
0.0
 40
1.500000000000014
 50
41.810314895778092
 51
138.18968510422081
  0
ARC
  5
D7
  8
DATA
  6
CONTINUOUS
 62
     7
 10
0.0000000000000325
 20
-102.5
 30
0.0
 40
1.499999999999984
 50
221.81031489577839
 51
318.18968510422121
  0
CIRCLE
  5
D8
  8
DATA
  6
CONTINUOUS
 62
     7
 10
0.0000000000000041
 20
-120.0
 30
0.0
 40
9.7500000000000284
  0
LINE
  5
D9
  8
DATA
  6
CONTINUOUS
 62
     7
 10
-1.4999999999999949
 20
-110.3660755660011
 30
0.0
 11
-1.4999999999999949
 21
-111.32878324570309
 31
0.0
  0
LINE
  5
DA
  8
DATA
  6
CONTINUOUS
 62
     7
 10
1.500000000000004
 20
-110.3660755660011
 30
0.0
 11
1.500000000000004
 21
-111.32878324570309
 31
0.0
  0
POLYLINE
  5
DB
  8
DATA
  6
CONTINUOUS
 62
     7
 66
     1
 10
0.0
 20
0.0
 30
0.0
 70
     1
  0
VERTEX
  5
2E5
  8
DATA
  6
CONTINUOUS
 62
     7
 10
0.0264649431690884
 20
63.290965675735151
 30
0.0
  0
VERTEX
  5
2E6
  8
DATA
  6
CONTINUOUS
 62
     7
 10
1.6659999999999959
 20
61.499999999999993
 30
0.0
  0
VERTEX
  5
2E7
  8
DATA
  6
CONTINUOUS
 62
     7
 10
0.8177284190561807
 20
61.499999999999993
 30
0.0
  0
VERTEX
  5
2E8
  8
DATA
  6
CONTINUOUS
 62
     7
 10
-0.4304736188741459
 20
62.926571621001962
 30
0.0
  0
VERTEX
  5
2E9
  8
DATA
  6
CONTINUOUS
 62
     7
 10
-0.8408518158601908
 20
62.599307985152997
 30
0.0
  0
VERTEX
  5
2EA
  8
DATA
  6
CONTINUOUS
 62
     7
 10
-0.8408518158601908
 20
61.501877782762591
 30
0.0
  0
VERTEX
  5
2EB
  8
DATA
  6
CONTINUOUS
 62
     7
 10
-1.6670000000000009
 20
61.501877782762591
 30
0.0
  0
VERTEX
  5
2EC
  8
DATA
  6
CONTINUOUS
 62
     7
 10
-1.6670000000000009
 20
64.5
 30
0.0
  0
VERTEX
  5
2ED
  8
DATA
  6
CONTINUOUS
 62
     7
 10
-0.8408518158601908
 20
64.5
 30
0.0
  0
VERTEX
  5
2EE
  8
DATA
  6
CONTINUOUS
 62
     7
 10
-0.8408518158601908
 20
63.254077265570793
 30
0.0
  0
VERTEX
  5
2EF
  8
DATA
  6
CONTINUOUS
 62
     7
 10
0.6960793650793562
 20
64.5
 30
0.0
  0
VERTEX
  5
2F0
  8
DATA
  6
CONTINUOUS
 62
     7
 10
1.542555555555537
 20
64.5
 30
0.0
  0
SEQEND
  5
2F1
  8
DATA
  6
CONTINUOUS
 62
     7
  0
POLYLINE
  5
EA
  8
DATA
  6
CONTINUOUS
 62
     7
 66
     1
 10
0.0
 20
0.0
 30
0.0
 70
   129
  0
VERTEX
  5
2F2
  8
DATA
  6
CONTINUOUS
 62
     7
 10
4.3564514082043502
 20
61.499999999999993
 30
0.0
  0
VERTEX
  5
2F3
  8
DATA
  6
CONTINUOUS
 62
     7
 10
4.988775315259403
 20
61.499999999999993
 30
0.0
  0
VERTEX
  5
2F4
  8
DATA
  6
CONTINUOUS
 62
     7
 10
4.9943876576296873
 20
63.156861486058403
 30
0.0
  0
VERTEX
  5
2F5
  8
DATA
  6
CONTINUOUS
 62
     7
 10
3.3013310425858711
 20
63.156861486058403
 30
0.0
  0
VERTEX
  5
2F6
  8
DATA
  6
CONTINUOUS
 62
     7
 10
3.3013310425858711
 20
62.807201459701737
 30
0.0
  0
VERTEX
  5
2F7
  8
DATA
  6
CONTINUOUS
 62
     7
 10
4.2442045607981242
 20
62.807201459701737
 30
0.0
  0
VERTEX
  5
2F8
  8
DATA
  6
CONTINUOUS
 62
     7
 10
4.2442045607981242
 20
62.498242600434189
 30
0.0
  0
VERTEX
  5
2F9
  8
DATA
  6
CONTINUOUS
 62
     7
 10
4.221755191316845
 20
62.32618766683013
 30
0.0
  0
VERTEX
  5
2FA
  8
DATA
  6
CONTINUOUS
 62
     7
 10
4.1312521813375724
 20
62.148931431553358
 30
0.0
  0
VERTEX
  5
2FB
  8
DATA
  6
CONTINUOUS
 62
     7
 10
4.0124416441338431
 20
62.047178513830531
 30
0.0
  0
VERTEX
  5
2FC
  8
DATA
  6
CONTINUOUS
 62
     7
 10
3.868177621987257
 20
61.949701871255577
 30
0.0
  0
VERTEX
  5
2FD
  8
DATA
  6
CONTINUOUS
 62
     7
 10
3.7447060898404341
 20
61.907150651116972
 30
0.0
  0
VERTEX
  5
2FE
  8
DATA
  6
CONTINUOUS
 62
     7
 10
3.5733378169757368
 20
61.882174934948637
 30
0.0
  0
VERTEX
  5
2FF
  8
DATA
  6
CONTINUOUS
 62
     7
 10
3.3986116436712162
 20
61.86367440445359
 30
0.0
  0
VERTEX
  5
300
  8
DATA
  6
CONTINUOUS
 62
     7
 10
3.2489491804629149
 20
61.880324881899107
 30
0.0
  0
VERTEX
  5
301
  8
DATA
  6
CONTINUOUS
 62
     7
 10
3.1056426194497808
 20
61.909925730691221
 30
0.0
  0
VERTEX
  5
302
  8
DATA
  6
CONTINUOUS
 62
     7
 10
2.9870398698484162
 20
61.96542732217641
 30
0.0
  0
VERTEX
  5
303
  8
DATA
  6
CONTINUOUS
 62
     7
 10
2.837377406640115
 20
62.039429444156653
 30
0.0
  0
VERTEX
  5
304
  8
DATA
  6
CONTINUOUS
 62
     7
 10
2.718566869436386
 20
62.141182361879501
 30
0.0
  0
VERTEX
  5
305
  8
DATA
  6
CONTINUOUS
 62
     7
 10
2.6128837118276351
 20
62.32618766683013
 30
0.0
  0
VERTEX
  5
306
  8
DATA
  6
CONTINUOUS
 62
     7
 10
2.519344672322489
 20
62.566694563265962
 30
0.0
  0
VERTEX
  5
307
  8
DATA
  6
CONTINUOUS
 62
     7
 10
2.519344672322489
 20
63.232713661088212
 30
0.0
  0
VERTEX
  5
308
  8
DATA
  6
CONTINUOUS
 62
     7
 10
2.5941759039266401
 20
63.519471883761682
 30
0.0
  0
VERTEX
  5
309
  8
DATA
  6
CONTINUOUS
 62
     7
 10
2.7812539829369869
 20
63.796979841187607
 30
0.0
  0
VERTEX
  5
30A
  8
DATA
  6
CONTINUOUS
 62
     7
 10
2.9108654780683021
 20
63.907983024158007
 30
0.0
  0
VERTEX
  5
30B
  8
DATA
  6
CONTINUOUS
 62
     7
 10
3.0618711014525961
 20
64.037308782070795
 30
0.0
  0
VERTEX
  5
30C
  8
DATA
  6
CONTINUOUS
 62
     7
 10
3.1741179488587918
 20
64.087764774330068
 30
0.0
  0
VERTEX
  5
30D
  8
DATA
  6
CONTINUOUS
 62
     7
 10
3.3611960278691688
 20
64.129811434546141
 30
0.0
  0
VERTEX
  5
30E
  8
DATA
  6
CONTINUOUS
 62
     7
 10
3.4958922447565892
 20
64.141089708395782
 30
0.0
  0
VERTEX
  5
30F
  8
DATA
  6
CONTINUOUS
 62
     7
 10
3.658650173495658
 20
64.129762078525687
 30
0.0
  0
VERTEX
  5
310
  8
DATA
  6
CONTINUOUS
 62
     7
 10
3.8644360604070869
 20
64.07101500408757
 30
0.0
  0
VERTEX
  5
311
  8
DATA
  6
CONTINUOUS
 62
     7
 10
4.0159693044054734
 20
63.989385358336229
 30
0.0
  0
VERTEX
  5
312
  8
DATA
  6
CONTINUOUS
 62
     7
 10
4.0908005360096231
 20
63.907983024158007
 30
0.0
  0
VERTEX
  5
313
  8
DATA
  6
CONTINUOUS
 62
     7
 10
4.1581486444533482
 20
63.796979841187607
 30
0.0
  0
VERTEX
  5
314
  8
DATA
  6
CONTINUOUS
 62
     7
 10
4.1843395755147688
 20
63.716870194226573
 30
0.0
  0
VERTEX
  5
315
  8
DATA
  6
CONTINUOUS
 62
     7
 10
4.2142720681564461
 20
63.508371565464621
 30
0.0
  0
VERTEX
  5
316
  8
DATA
  6
CONTINUOUS
 62
     7
 10
4.9962584384198001
 20
63.508371565464621
 30
0.0
  0
VERTEX
  5
317
  8
DATA
  6
CONTINUOUS
 62
     7
 10
5.0000000000000284
 20
63.637875278930068
 30
0.0
  0
VERTEX
  5
318
  8
DATA
  6
CONTINUOUS
 62
     7
 10
4.988775315259403
 20
63.722977719207343
 30
0.0
  0
VERTEX
  5
319
  8
DATA
  6
CONTINUOUS
 62
     7
 10
4.9139440836552524
 20
63.889482493662932
 30
0.0
  0
VERTEX
  5
31A
  8
DATA
  6
CONTINUOUS
 62
     7
 10
4.8204050441500783
 20
64.046737002870955
 30
0.0
  0
VERTEX
  5
31B
  8
DATA
  6
CONTINUOUS
 62
     7
 10
4.6583906752359487
 20
64.185490981583911
 30
0.0
  0
VERTEX
  5
31C
  8
DATA
  6
CONTINUOUS
 62
     7
 10
4.4724398171908044
 20
64.316844748098845
 30
0.0
  0
VERTEX
  5
31D
  8
DATA
  6
CONTINUOUS
 62
     7
 10
4.2011766026257069
 20
64.420967744102683
 30
0.0
  0
VERTEX
  5
31E
  8
DATA
  6
CONTINUOUS
 62
     7
 10
3.8157957598643848
 20
64.486351859423294
 30
0.0
  0
VERTEX
  5
31F
  8
DATA
  6
CONTINUOUS
 62
     7
 10
3.436027259473291
 20
64.5
 30
0.0
  0
VERTEX
  5
320
  8
DATA
  6
CONTINUOUS
 62
     7
 10
3.129219209896319
 20
64.481499469504925
 30
0.0
  0
VERTEX
  5
321
  8
DATA
  6
CONTINUOUS
 62
     7
 10
2.7782568726654802
 20
64.393059748578381
 30
0.0
  0
VERTEX
  5
322
  8
DATA
  6
CONTINUOUS
 62
     7
 10
2.3550978409661241
 20
64.219687046241603
 30
0.0
  0
VERTEX
  5
323
  8
DATA
  6
CONTINUOUS
 62
     7
 10
2.1564131990423898
 20
64.0855881169106
 30
0.0
  0
VERTEX
  5
324
  8
DATA
  6
CONTINUOUS
 62
     7
 10
2.00300917425389
 20
63.926483554653061
 30
0.0
  0
VERTEX
  5
325
  8
DATA
  6
CONTINUOUS
 62
     7
 10
1.834638903144536
 20
63.696377246239862
 30
0.0
  0
VERTEX
  5
326
  8
DATA
  6
CONTINUOUS
 62
     7
 10
1.741099863639334
 20
63.476920663622998
 30
0.0
  0
VERTEX
  5
327
  8
DATA
  6
CONTINUOUS
 62
     7
 10
1.688718001516434
 20
63.278964987325843
 30
0.0
  0
VERTEX
  5
328
  8
DATA
  6
CONTINUOUS
 62
     7
 10
1.6659999999999959
 20
63.130960743365357
 30
0.0
  0
VERTEX
  5
329
  8
DATA
  6
CONTINUOUS
 62
     7
 10
1.6659999999999959
 20
62.840502414592883
 30
0.0
  0
VERTEX
  5
32A
  8
DATA
  6
CONTINUOUS
 62
     7
 10
1.6919222990262881
 20
62.577794881562959
 30
0.0
  0
VERTEX
  5
32B
  8
DATA
  6
CONTINUOUS
 62
     7
 10
1.7672907947008121
 20
62.346538250374692
 30
0.0
  0
VERTEX
  5
32C
  8
DATA
  6
CONTINUOUS
 62
     7
 10
1.864571395786214
 20
62.141182361879501
 30
0.0
  0
VERTEX
  5
32D
  8
DATA
  6
CONTINUOUS
 62
     7
 10
2.0628741595371589
 20
61.896975359344651
 30
0.0
  0
VERTEX
  5
32E
  8
DATA
  6
CONTINUOUS
 62
     7
 10
2.3472328396329369
 20
61.702719789146492
 30
0.0
  0
VERTEX
  5
32F
  8
DATA
  6
CONTINUOUS
 62
     7
 10
2.6858441626417
 20
61.573977862230862
 30
0.0
  0
VERTEX
  5
330
  8
DATA
  6
CONTINUOUS
 62
     7
 10
2.8523436529609678
 20
61.539915120789928
 30
0.0
  0
VERTEX
  5
331
  8
DATA
  6
CONTINUOUS
 62
     7
 10
3.136966143363765
 20
61.505689139374098
 30
0.0
  0
VERTEX
  5
332
  8
DATA
  6
CONTINUOUS
 62
     7
 10
3.4731790649682921
 20
61.500138980225593
 30
0.0
  0
VERTEX
  5
333
  8
DATA
  6
CONTINUOUS
 62
     7
 10
3.7460492500163398
 20
61.539915120789928
 30
0.0
  0
VERTEX
  5
334
  8
DATA
  6
CONTINUOUS
 62
     7
 10
4.0187214907879527
 20
61.625524563217823
 30
0.0
  0
VERTEX
  5
335
  8
DATA
  6
CONTINUOUS
 62
     7
 10
4.1710702743480956
 20
61.700854963525742
 30
0.0
  0
VERTEX
  5
336
  8
DATA
  6
CONTINUOUS
 62
     7
 10
4.2666539302793458
 20
61.769321698928721
 30
0.0
  0
SEQEND
  5
337
  8
DATA
  6
CONTINUOUS
 62
     7
  0
POLYLINE
  5
131
  8
DATA
  6
CONTINUOUS
 62
     7
 66
     1
 10
0.0
 20
0.0
 30
0.0
 70
     1
  0
VERTEX
  5
338
  8
DATA
  6
CONTINUOUS
 62
     7
 10
-4.2797639574533539
 20
61.499999999999993
 30
0.0
  0
VERTEX
  5
339
  8
DATA
  6
CONTINUOUS
 62
     7
 10
-3.8966718997351388
 20
62.351851851851841
 30
0.0
  0
VERTEX
  5
33A
  8
DATA
  6
CONTINUOUS
 62
     7
 10
-2.8031077649592642
 20
62.351851851851841
 30
0.0
  0
VERTEX
  5
33B
  8
DATA
  6
CONTINUOUS
 62
     7
 10
-2.446435849152635
 20
61.499999999999993
 30
0.0
  0
VERTEX
  5
33C
  8
DATA
  6
CONTINUOUS
 62
     7
 10
-1.6670000000000009
 20
61.499999999999993
 30
0.0
  0
VERTEX
  5
33D
  8
DATA
  6
CONTINUOUS
 62
     7
 10
-3.0684578858975442
 20
64.5
 30
0.0
  0
VERTEX
  5
33E
  8
DATA
  6
CONTINUOUS
 62
     7
 10
-3.6577419207084461
 20
64.5
 30
0.0
  0
VERTEX
  5
33F
  8
DATA
  6
CONTINUOUS
 62
     7
 10
-5.0
 20
61.499999999999993
 30
0.0
  0
SEQEND
  5
340
  8
DATA
  6
CONTINUOUS
 62
     7
  0
POLYLINE
  5
13C
  8
DATA
  6
CONTINUOUS
 62
     7
 66
     1
 10
0.0
 20
0.0
 30
0.0
 70
     1
  0
VERTEX
  5
341
  8
DATA
  6
CONTINUOUS
 62
     7
 10
-3.760788064748112
 20
62.902898528001607
 30
0.0
  0
VERTEX
  5
342
  8
DATA
  6
CONTINUOUS
 62
     7
 10
-3.033832007976343
 20
62.902898528001607
 30
0.0
  0
VERTEX
  5
343
  8
DATA
  6
CONTINUOUS
 62
     7
 10
-3.384328678205605
 20
63.48592592592594
 30
0.0
  0
SEQEND
  5
344
  8
DATA
  6
CONTINUOUS
 62
     7
  0
POLYLINE
  5
142
  8
DATA
  6
CONTINUOUS
 62
     7
 66
     1
 10
0.0
 20
0.0
 30
0.0
 70
     1
  0
VERTEX
  5
345
  8
DATA
  6
CONTINUOUS
 62
     7
 10
23.117469763779329
 20
103.3774364752265
 30
0.0
  0
VERTEX
  5
346
  8
DATA
  6
CONTINUOUS
 62
     7
 10
23.848724007856529
 20
105.6927983227049
 30
0.0
  0
VERTEX
  5
347
  8
DATA
  6
CONTINUOUS
 62
     7
 10
24.272859798328419
 20
104.9581735842991
 30
0.0
  0
VERTEX
  5
348
  8
DATA
  6
CONTINUOUS
 62
     7
 10
23.66151355318792
 20
103.163913099895
 30
0.0
  0
VERTEX
  5
349
  8
DATA
  6
CONTINUOUS
 62
     7
 10
24.150121274060979
 20
102.9721469740703
 30
0.0
  0
VERTEX
  5
34A
  8
DATA
  6
CONTINUOUS
 62
     7
 10
25.100523708211401
 20
103.5208620752655
 30
0.0
  0
VERTEX
  5
34B
  8
DATA
  6
CONTINUOUS
 62
     7
 10
25.51359780028131
 20
102.80539676051001
 30
0.0
  0
VERTEX
  5
34C
  8
DATA
  6
CONTINUOUS
 62
     7
 10
22.917147796503201
 20
101.3063356518913
 30
0.0
  0
VERTEX
  5
34D
  8
DATA
  6
CONTINUOUS
 62
     7
 10
22.504073704433299
 20
102.02180096664679
 30
0.0
  0
VERTEX
  5
34E
  8
DATA
  6
CONTINUOUS
 62
     7
 10
23.583074443601529
 20
102.64476233386139
 30
0.0
  0
VERTEX
  5
34F
  8
DATA
  6
CONTINUOUS
 62
     7
 10
21.73560811396354
 20
103.3528224132088
 30
0.0
  0
VERTEX
  5
350
  8
DATA
  6
CONTINUOUS
 62
     7
 10
21.312370018725431
 20
104.0858922978599
 30
0.0
  0
SEQEND
  5
351
  8
DATA
  6
CONTINUOUS
 62
     7
  0
POLYLINE
  5
151
  8
DATA
  6
CONTINUOUS
 62
     7
 66
     1
 10
0.0
 20
0.0
 30
0.0
 70
   129
  0
VERTEX
  5
352
  8
DATA
  6
CONTINUOUS
 62
     7
 10
22.503498303754348
 20
108.0227975898574
 30
0.0
  0
VERTEX
  5
353
  8
DATA
  6
CONTINUOUS
 62
     7
 10
22.187336350226779
 20
108.5704061567873
 30
0.0
  0
VERTEX
  5
354
  8
DATA
  6
CONTINUOUS
 62
     7
 10
20.749646041563011
 20
107.7468358448255
 30
0.0
  0
VERTEX
  5
355
  8
DATA
  6
CONTINUOUS
 62
     7
 10
21.596174349084919
 20
106.28060580615229
 30
0.0
  0
VERTEX
  5
356
  8
DATA
  6
CONTINUOUS
 62
     7
 10
21.89898881459775
 20
106.4554358193306
 30
0.0
  0
VERTEX
  5
357
  8
DATA
  6
CONTINUOUS
 62
     7
 10
21.427552055491638
 20
107.2719882386581
 30
0.0
  0
VERTEX
  5
358
  8
DATA
  6
CONTINUOUS
 62
     7
 10
21.69511827634156
 20
107.42646766829181
 30
0.0
  0
VERTEX
  5
359
  8
DATA
  6
CONTINUOUS
 62
     7
 10
21.855346904429808
 20
107.4930534108241
 30
0.0
  0
VERTEX
  5
35A
  8
DATA
  6
CONTINUOUS
 62
     7
 10
22.054106812148319
 20
107.50330362270149
 30
0.0
  0
VERTEX
  5
35B
  8
DATA
  6
CONTINUOUS
 62
     7
 10
22.201632692407351
 20
107.4512871381072
 30
0.0
  0
VERTEX
  5
35C
  8
DATA
  6
CONTINUOUS
 62
     7
 10
22.35818195222615
 20
107.3750891513636
 30
0.0
  0
VERTEX
  5
35D
  8
DATA
  6
CONTINUOUS
 62
     7
 10
22.456768155901582
 20
107.28943527794959
 30
0.0
  0
VERTEX
  5
35E
  8
DATA
  6
CONTINUOUS
 62
     7
 10
22.564081897013441
 20
107.1535138583303
 30
0.0
  0
VERTEX
  5
35F
  8
DATA
  6
CONTINUOUS
 62
     7
 10
22.66746691305789
 20
107.01144681879011
 30
0.0
  0
VERTEX
  5
360
  8
DATA
  6
CONTINUOUS
 62
     7
 10
22.727878408209079
 20
106.8735100849359
 30
0.0
  0
VERTEX
  5
361
  8
DATA
  6
CONTINUOUS
 62
     7
 10
22.773896601688111
 20
106.7346025381735
 30
0.0
  0
VERTEX
  5
362
  8
DATA
  6
CONTINUOUS
 62
     7
 10
22.785132188312129
 20
106.6041387483175
 30
0.0
  0
VERTEX
  5
363
  8
DATA
  6
CONTINUOUS
 62
     7
 10
22.795875702347448
 20
106.437526192196
 30
0.0
  0
VERTEX
  5
364
  8
DATA
  6
CONTINUOUS
 62
     7
 10
22.767160359292149
 20
106.28375678987889
 30
0.0
  0
VERTEX
  5
365
  8
DATA
  6
CONTINUOUS
 62
     7
 10
22.659782644174388
 20
106.0997298381622
 30
0.0
  0
VERTEX
  5
366
  8
DATA
  6
CONTINUOUS
 62
     7
 10
22.498267081828171
 20
105.8984692054872
 30
0.0
  0
VERTEX
  5
367
  8
DATA
  6
CONTINUOUS
 62
     7
 10
21.921477623708508
 20
105.5654596565761
 30
0.0
  0
VERTEX
  5
368
  8
DATA
  6
CONTINUOUS
 62
     7
 10
21.635722102327151
 20
105.4868862928051
 30
0.0
  0
VERTEX
  5
369
  8
DATA
  6
CONTINUOUS
 62
     7
 10
21.30185412193876
 20
105.5101466830063
 30
0.0
  0
VERTEX
  5
36A
  8
DATA
  6
CONTINUOUS
 62
     7
 10
21.140916798019848
 20
105.5668919389272
 30
0.0
  0
VERTEX
  5
36B
  8
DATA
  6
CONTINUOUS
 62
     7
 10
20.95341459461153
 20
105.6330037659359
 30
0.0
  0
VERTEX
  5
36C
  8
DATA
  6
CONTINUOUS
 62
     7
 10
20.853594999838752
 20
105.7049843911548
 30
0.0
  0
VERTEX
  5
36D
  8
DATA
  6
CONTINUOUS
 62
     7
 10
20.723642484442198
 20
105.845975429961
 30
0.0
  0
VERTEX
  5
36E
  8
DATA
  6
CONTINUOUS
 62
     7
 10
20.646527104333838
 20
105.9569866386543
 30
0.0
  0
VERTEX
  5
36F
  8
DATA
  6
CONTINUOUS
 62
     7
 10
20.57495815519647
 20
106.1036029545447
 30
0.0
  0
VERTEX
  5
370
  8
DATA
  6
CONTINUOUS
 62
     7
 10
20.52294167060214
 20
106.31119229756941
 30
0.0
  0
VERTEX
  5
371
  8
DATA
  6
CONTINUOUS
 62
     7
 10
20.517868395525539
 20
106.4832387592655
 30
0.0
  0
VERTEX
  5
372
  8
DATA
  6
CONTINUOUS
 62
     7
 10
20.550949269049202
 20
106.5887456739203
 30
0.0
  0
VERTEX
  5
373
  8
DATA
  6
CONTINUOUS
 62
     7
 10
20.613406791180608
 20
106.7025724382146
 30
0.0
  0
VERTEX
  5
374
  8
DATA
  6
CONTINUOUS
 62
     7
 10
20.669688315006368
 20
106.76530927334311
 30
0.0
  0
VERTEX
  5
375
  8
DATA
  6
CONTINUOUS
 62
     7
 10
20.835287177847619
 20
106.89548088675031
 30
0.0
  0
VERTEX
  5
376
  8
DATA
  6
CONTINUOUS
 62
     7
 10
20.444293992715899
 20
107.5727009488116
 30
0.0
  0
VERTEX
  5
377
  8
DATA
  6
CONTINUOUS
 62
     7
 10
20.33026970618031
 20
107.51118937945709
 30
0.0
  0
VERTEX
  5
378
  8
DATA
  6
CONTINUOUS
 62
     7
 10
20.26218117334648
 20
107.4589172971837
 30
0.0
  0
VERTEX
  5
379
  8
DATA
  6
CONTINUOUS
 62
     7
 10
20.155399424618601
 20
107.3108591623902
 30
0.0
  0
VERTEX
  5
37A
  8
DATA
  6
CONTINUOUS
 62
     7
 10
20.06598254453737
 20
107.15122472332909
 30
0.0
  0
VERTEX
  5
37B
  8
DATA
  6
CONTINUOUS
 62
     7
 10
20.026825258552861
 20
106.9415391747148
 30
0.0
  0
VERTEX
  5
37C
  8
DATA
  6
CONTINUOUS
 62
     7
 10
20.00604498889075
 20
106.7148241245348
 30
0.0
  0
VERTEX
  5
37D
  8
DATA
  6
CONTINUOUS
 62
     7
 10
20.051503436515791
 20
106.42784179160731
 30
0.0
  0
VERTEX
  5
37E
  8
DATA
  6
CONTINUOUS
 62
     7
 10
20.187569553024812
 20
106.0614001339838
 30
0.0
  0
VERTEX
  5
37F
  8
DATA
  6
CONTINUOUS
 62
     7
 10
20.365634166766569
 20
105.72568689479969
 30
0.0
  0
VERTEX
  5
380
  8
DATA
  6
CONTINUOUS
 62
     7
 10
20.535060120947239
 20
105.469233595028
 30
0.0
  0
VERTEX
  5
381
  8
DATA
  6
CONTINUOUS
 62
     7
 10
20.78713233458862
 20
105.2095111556778
 30
0.0
  0
VERTEX
  5
382
  8
DATA
  6
CONTINUOUS
 62
     7
 10
21.14885701498471
 20
104.9297310355537
 30
0.0
  0
VERTEX
  5
383
  8
DATA
  6
CONTINUOUS
 62
     7
 10
21.36433241536756
 20
104.8247145529714
 30
0.0
  0
VERTEX
  5
384
  8
DATA
  6
CONTINUOUS
 62
     7
 10
21.578823020534831
 20
104.77141505159059
 30
0.0
  0
VERTEX
  5
385
  8
DATA
  6
CONTINUOUS
 62
     7
 10
21.862286064746431
 20
104.74065527377439
 30
0.0
  0
VERTEX
  5
386
  8
DATA
  6
CONTINUOUS
 62
     7
 10
22.09911056007288
 20
104.7693763806257
 30
0.0
  0
VERTEX
  5
387
  8
DATA
  6
CONTINUOUS
 62
     7
 10
22.296736135631051
 20
104.8229901954784
 30
0.0
  0
VERTEX
  5
388
  8
DATA
  6
CONTINUOUS
 62
     7
 10
22.436270571526929
 20
104.87731795102221
 30
0.0
  0
VERTEX
  5
389
  8
DATA
  6
CONTINUOUS
 62
     7
 10
22.687814862984649
 20
105.0225471154084
 30
0.0
  0
VERTEX
  5
38A
  8
DATA
  6
CONTINUOUS
 62
     7
 10
22.902365110840972
 20
105.1763502514046
 30
0.0
  0
VERTEX
  5
38B
  8
DATA
  6
CONTINUOUS
 62
     7
 10
23.06495498040638
 20
105.35724959889789
 30
0.0
  0
VERTEX
  5
38C
  8
DATA
  6
CONTINUOUS
 62
     7
 10
23.19415809611727
 20
105.54417501498089
 30
0.0
  0
VERTEX
  5
38D
  8
DATA
  6
CONTINUOUS
 62
     7
 10
23.306496182218972
 20
105.8380137472973
 30
0.0
  0
VERTEX
  5
38E
  8
DATA
  6
CONTINUOUS
 62
     7
 10
23.332547100789359
 20
106.1814033731459
 30
0.0
  0
VERTEX
  5
38F
  8
DATA
  6
CONTINUOUS
 62
     7
 10
23.27473521852605
 20
106.5390203443384
 30
0.0
  0
VERTEX
  5
390
  8
DATA
  6
CONTINUOUS
 62
     7
 10
23.22098467277678
 20
106.7002445033925
 30
0.0
  0
VERTEX
  5
391
  8
DATA
  6
CONTINUOUS
 62
     7
 10
23.108313996950951
 20
106.96384780127769
 30
0.0
  0
VERTEX
  5
392
  8
DATA
  6
CONTINUOUS
 62
     7
 10
22.945014114966369
 20
107.257791812042
 30
0.0
  0
VERTEX
  5
393
  8
DATA
  6
CONTINUOUS
 62
     7
 10
22.77413187424909
 20
107.47421625394681
 30
0.0
  0
VERTEX
  5
394
  8
DATA
  6
CONTINUOUS
 62
     7
 10
22.563655801916951
 20
107.6675526201479
 30
0.0
  0
VERTEX
  5
395
  8
DATA
  6
CONTINUOUS
 62
     7
 10
22.422243369792991
 20
107.7618253367927
 30
0.0
  0
VERTEX
  5
396
  8
DATA
  6
CONTINUOUS
 62
     7
 10
22.315157609654161
 20
107.81036984331421
 30
0.0
  0
SEQEND
  5
397
  8
DATA
  6
CONTINUOUS
 62
     7
  0
POLYLINE
  5
198
  8
DATA
  6
CONTINUOUS
 62
     7
 66
     1
 10
0.0
 20
0.0
 30
0.0
 70
     1
  0
VERTEX
  5
398
  8
DATA
  6
CONTINUOUS
 62
     7
 10
26.82160598658319
 20
100.5436156906443
 30
0.0
  0
VERTEX
  5
399
  8
DATA
  6
CONTINUOUS
 62
     7
 10
25.892334613759569
 20
100.4494572186905
 30
0.0
  0
VERTEX
  5
39A
  8
DATA
  6
CONTINUOUS
 62
     7
 10
25.345552546371639
 20
101.3965115400739
 30
0.0
  0
VERTEX
  5
39B
  8
DATA
  6
CONTINUOUS
 62
     7
 10
25.90494193243282
 20
102.13132440590481
 30
0.0
  0
VERTEX
  5
39C
  8
DATA
  6
CONTINUOUS
 62
     7
 10
25.515224007856521
 20
102.8063356518913
 30
0.0
  0
VERTEX
  5
39D
  8
DATA
  6
CONTINUOUS
 62
     7
 10
23.61787673945199
 20
100.09263752037
 30
0.0
  0
VERTEX
  5
39E
  8
DATA
  6
CONTINUOUS
 62
     7
 10
23.912518756857391
 20
99.582302576179202
 30
0.0
  0
VERTEX
  5
39F
  8
DATA
  6
CONTINUOUS
 62
     7
 10
27.181724007856499
 20
99.919872981077802
 30
0.0
  0
SEQEND
  5
3A0
  8
DATA
  6
CONTINUOUS
 62
     7
  0
POLYLINE
  5
1A3
  8
DATA
  6
CONTINUOUS
 62
     7
 66
     1
 10
0.0
 20
0.0
 30
0.0
 70
     1
  0
VERTEX
  5
3A1
  8
DATA
  6
CONTINUOUS
 62
     7
 10
25.347172276049349
 20
100.29161273367799
 30
0.0
  0
VERTEX
  5
3A2
  8
DATA
  6
CONTINUOUS
 62
     7
 10
24.983694247663468
 20
100.92117514627731
 30
0.0
  0
VERTEX
  5
3A3
  8
DATA
  6
CONTINUOUS
 62
     7
 10
24.65402604507327
 20
100.3261224269548
 30
0.0
  0
SEQEND
  5
3A4
  8
DATA
  6
CONTINUOUS
 62
     7
  0
POLYLINE
  5
1A9
  8
DATA
  6
CONTINUOUS
 62
     7
 66
     1
 10
0.0
 20
0.0
 30
0.0
 70
     1
  0
VERTEX
  5
3A5
  8
DATA
  6
CONTINUOUS
 62
     7
 10
-23.14393470694845
 20
103.3315978490382
 30
0.0
  0
VERTEX
  5
3A6
  8
DATA
  6
CONTINUOUS
 62
     7
 10
-25.514724007856501
 20
102.8072016772951
 30
0.0
  0
VERTEX
  5
3A7
  8
DATA
  6
CONTINUOUS
 62
     7
 10
-25.090588217384571
 20
103.5418264157008
 30
0.0
  0
VERTEX
  5
3A8
  8
DATA
  6
CONTINUOUS
 62
     7
 10
-23.23103993431377
 20
103.9095152791031
 30
0.0
  0
VERTEX
  5
3A9
  8
DATA
  6
CONTINUOUS
 62
     7
 10
-23.30926945820082
 20
104.4285450407767
 30
0.0
  0
VERTEX
  5
3AA
  8
DATA
  6
CONTINUOUS
 62
     7
 10
-24.259671892351221
 20
104.9772601419719
 30
0.0
  0
VERTEX
  5
3AB
  8
DATA
  6
CONTINUOUS
 62
     7
 10
-23.846597800281309
 20
105.6927254567273
 30
0.0
  0
VERTEX
  5
3AC
  8
DATA
  6
CONTINUOUS
 62
     7
 10
-21.250147796503171
 20
104.1936643481087
 30
0.0
  0
VERTEX
  5
3AD
  8
DATA
  6
CONTINUOUS
 62
     7
 10
-21.66322188857308
 20
103.47819903335321
 30
0.0
  0
VERTEX
  5
3AE
  8
DATA
  6
CONTINUOUS
 62
     7
 10
-22.742222627741342
 20
104.10116040056781
 30
0.0
  0
VERTEX
  5
3AF
  8
DATA
  6
CONTINUOUS
 62
     7
 10
-22.431687479042861
 20
102.1471775867911
 30
0.0
  0
VERTEX
  5
3B0
  8
DATA
  6
CONTINUOUS
 62
     7
 10
-22.854925574280941
 20
101.41410770214
 30
0.0
  0
SEQEND
  5
3B1
  8
DATA
  6
CONTINUOUS
 62
     7
  0
POLYLINE
  5
1B8
  8
DATA
  6
CONTINUOUS
 62
     7
 66
     1
 10
0.0
 20
0.0
 30
0.0
 70
   129
  0
VERTEX
  5
3B2
  8
DATA
  6
CONTINUOUS
 62
     7
 10
-26.859949711958681
 20
100.4772024101425
 30
0.0
  0
VERTEX
  5
3B3
  8
DATA
  6
CONTINUOUS
 62
     7
 10
-27.1761116654862
 20
99.929593843212643
 30
0.0
  0
VERTEX
  5
3B4
  8
DATA
  6
CONTINUOUS
 62
     7
 10
-25.74403369919273
 20
99.096302669116056
 30
0.0
  0
VERTEX
  5
3B5
  8
DATA
  6
CONTINUOUS
 62
     7
 10
-24.897505391670819
 20
100.5625327077893
 30
0.0
  0
VERTEX
  5
3B6
  8
DATA
  6
CONTINUOUS
 62
     7
 10
-25.200319857183612
 20
100.7373627209676
 30
0.0
  0
VERTEX
  5
3B7
  8
DATA
  6
CONTINUOUS
 62
     7
 10
-25.671756616289741
 20
99.920810301640216
 30
0.0
  0
VERTEX
  5
3B8
  8
DATA
  6
CONTINUOUS
 62
     7
 10
-25.939322837139681
 20
100.0752897312739
 30
0.0
  0
VERTEX
  5
3B9
  8
DATA
  6
CONTINUOUS
 62
     7
 10
-26.077102095746628
 20
100.1807589223457
 30
0.0
  0
VERTEX
  5
3BA
  8
DATA
  6
CONTINUOUS
 62
     7
 10
-26.18535899348587
 20
100.3477649457451
 30
0.0
  0
VERTEX
  5
3BB
  8
DATA
  6
CONTINUOUS
 62
     7
 10
-26.21407433654117
 20
100.50153434806219
 30
0.0
  0
VERTEX
  5
3BC
  8
DATA
  6
CONTINUOUS
 62
     7
 10
-26.226359574213379
 20
100.67520897738081
 30
0.0
  0
VERTEX
  5
3BD
  8
DATA
  6
CONTINUOUS
 62
     7
 10
-26.201474245742052
 20
100.8034140709334
 30
0.0
  0
VERTEX
  5
3BE
  8
DATA
  6
CONTINUOUS
 62
     7
 10
-26.137419713989139
 20
100.96431120672101
 30
0.0
  0
VERTEX
  5
3BF
  8
DATA
  6
CONTINUOUS
 62
     7
 10
-26.066078556729138
 20
101.1248787767563
 30
0.0
  0
VERTEX
  5
3C0
  8
DATA
  6
CONTINUOUS
 62
     7
 10
-25.976827588671998
 20
101.2461650331649
 30
0.0
  0
VERTEX
  5
3C1
  8
DATA
  6
CONTINUOUS
 62
     7
 10
-25.87953922113789
 20
101.3554717311352
 30
0.0
  0
VERTEX
  5
3C2
  8
DATA
  6
CONTINUOUS
 62
     7
 10
-25.77217205816055
 20
101.43043392950609
 30
0.0
  0
VERTEX
  5
3C3
  8
DATA
  6
CONTINUOUS
 62
     7
 10
-25.63325310898756
 20
101.5230443636473
 30
0.0
  0
VERTEX
  5
3C4
  8
DATA
  6
CONTINUOUS
 62
     7
 10
-25.485727228728528
 20
101.57506084824161
 30
0.0
  0
VERTEX
  5
3C5
  8
DATA
  6
CONTINUOUS
 62
     7
 10
-25.27266635600202
 20
101.5740824950076
 30
0.0
  0
VERTEX
  5
3C6
  8
DATA
  6
CONTINUOUS
 62
     7
 10
-25.017611754150671
 20
101.5348362312468
 30
0.0
  0
VERTEX
  5
3C7
  8
DATA
  6
CONTINUOUS
 62
     7
 10
-24.440822296031001
 20
101.20182668233559
 30
0.0
  0
VERTEX
  5
3C8
  8
DATA
  6
CONTINUOUS
 62
     7
 10
-24.229898006253791
 20
100.99364182343319
 30
0.0
  0
VERTEX
  5
3C9
  8
DATA
  6
CONTINUOUS
 62
     7
 10
-24.08310810487578
 20
100.6928734758061
 30
0.0
  0
VERTEX
  5
3CA
  8
DATA
  6
CONTINUOUS
 62
     7
 10
-24.051782276088151
 20
100.5251250369147
 30
0.0
  0
VERTEX
  5
3CB
  8
DATA
  6
CONTINUOUS
 62
     7
 10
-24.015285696064129
 20
100.32968745199319
 30
0.0
  0
VERTEX
  5
3CC
  8
DATA
  6
CONTINUOUS
 62
     7
 10
-24.027712948697541
 20
100.20725083451509
 30
0.0
  0
VERTEX
  5
3CD
  8
DATA
  6
CONTINUOUS
 62
     7
 10
-24.08483851231134
 20
100.0242131354929
 30
0.0
  0
VERTEX
  5
3CE
  8
DATA
  6
CONTINUOUS
 62
     7
 10
-24.142419349090432
 20
99.901923652949904
 30
0.0
  0
VERTEX
  5
3CF
  8
DATA
  6
CONTINUOUS
 62
     7
 10
-24.23360832869211
 20
99.766634966929573
 30
0.0
  0
VERTEX
  5
3D0
  8
DATA
  6
CONTINUOUS
 62
     7
 10
-24.387377731009231
 20
99.617792698343052
 30
0.0
  0
VERTEX
  5
3D1
  8
DATA
  6
CONTINUOUS
 62
     7
 10
-24.533837699931009
 20
99.527375882398246
 30
0.0
  0
VERTEX
  5
3D2
  8
DATA
  6
CONTINUOUS
 62
     7
 10
-24.641749805058801
 20
99.503271301921686
 30
0.0
  0
VERTEX
  5
3D3
  8
DATA
  6
CONTINUOUS
 62
     7
 10
-24.77155543563396
 20
99.500447720597762
 30
0.0
  0
VERTEX
  5
3D4
  8
DATA
  6
CONTINUOUS
 62
     7
 10
-24.85402789052111
 20
99.517820532430306
 30
0.0
  0
VERTEX
  5
3D5
  8
DATA
  6
CONTINUOUS
 62
     7
 10
-25.049559246004041
 20
99.596147547785009
 30
0.0
  0
VERTEX
  5
3D6
  8
DATA
  6
CONTINUOUS
 62
     7
 10
-25.440552431135728
 20
98.918927485723756
 30
0.0
  0
VERTEX
  5
3D7
  8
DATA
  6
CONTINUOUS
 62
     7
 10
-25.33026970618031
 20
98.850935341612782
 30
0.0
  0
VERTEX
  5
3D8
  8
DATA
  6
CONTINUOUS
 62
     7
 10
-25.250956488605851
 20
98.818104983608947
 30
0.0
  0
VERTEX
  5
3D9
  8
DATA
  6
CONTINUOUS
 62
     7
 10
-25.069343508273821
 20
98.799658343946845
 30
0.0
  0
VERTEX
  5
3DA
  8
DATA
  6
CONTINUOUS
 62
     7
 10
-24.88638758868743
 20
98.802038273799909
 30
0.0
  0
VERTEX
  5
3DB
  8
DATA
  6
CONTINUOUS
 62
     7
 10
-24.68521593378879
 20
98.872969843701185
 30
0.0
  0
VERTEX
  5
3DC
  8
DATA
  6
CONTINUOUS
 62
     7
 10
-24.4784848060815
 20
98.968331127366312
 30
0.0
  0
VERTEX
  5
3DD
  8
DATA
  6
CONTINUOUS
 62
     7
 10
-24.252680039141492
 20
99.151190464290011
 30
0.0
  0
VERTEX
  5
3DE
  8
DATA
  6
CONTINUOUS
 62
     7
 10
-24.003365312889201
 20
99.452248006592839
 30
0.0
  0
VERTEX
  5
3DF
  8
DATA
  6
CONTINUOUS
 62
     7
 10
-23.801661426239829
 20
99.774313105200306
 30
0.0
  0
VERTEX
  5
3E0
  8
DATA
  6
CONTINUOUS
 62
     7
 10
-23.664279330843559
 20
100.049266935467
 30
0.0
  0
VERTEX
  5
3E1
  8
DATA
  6
CONTINUOUS
 62
     7
 10
-23.565389207254132
 20
100.3974290957438
 30
0.0
  0
VERTEX
  5
3E2
  8
DATA
  6
CONTINUOUS
 62
     7
 10
-23.503954855950859
 20
100.8505819182046
 30
0.0
  0
VERTEX
  5
3E3
  8
DATA
  6
CONTINUOUS
 62
     7
 10
-23.52074561440995
 20
101.0896973301179
 30
0.0
  0
VERTEX
  5
3E4
  8
DATA
  6
CONTINUOUS
 62
     7
 10
-23.581832194788721
 20
101.3021013937563
 30
0.0
  0
VERTEX
  5
3E5
  8
DATA
  6
CONTINUOUS
 62
     7
 10
-23.696924967890912
 20
101.5629674799857
 30
0.0
  0
VERTEX
  5
3E6
  8
DATA
  6
CONTINUOUS
 62
     7
 10
-23.84021042371225
 20
101.75370295575119
 30
0.0
  0
VERTEX
  5
3E7
  8
DATA
  6
CONTINUOUS
 62
     7
 10
-23.98545413714746
 20
101.8980448171957
 30
0.0
  0
VERTEX
  5
3E8
  8
DATA
  6
CONTINUOUS
 62
     7
 10
-24.10227057152693
 20
101.9917213056124
 30
0.0
  0
VERTEX
  5
3E9
  8
DATA
  6
CONTINUOUS
 62
     7
 10
-24.353814862984681
 20
102.13695046999869
 30
0.0
  0
VERTEX
  5
3EA
  8
DATA
  6
CONTINUOUS
 62
     7
 10
-24.59428740986727
 20
102.24585486703241
 30
0.0
  0
VERTEX
  5
3EB
  8
DATA
  6
CONTINUOUS
 62
     7
 10
-24.8322457751072
 20
102.2962121507273
 30
0.0
  0
VERTEX
  5
3EC
  8
DATA
  6
CONTINUOUS
 62
     7
 10
-25.058729491903449
 20
102.3146426231396
 30
0.0
  0
VERTEX
  5
3ED
  8
DATA
  6
CONTINUOUS
 62
     7
 10
-25.369370341756142
 20
102.265010893358
 30
0.0
  0
VERTEX
  5
3EE
  8
DATA
  6
CONTINUOUS
 62
     7
 10
-25.679779940422272
 20
102.1158768377075
 30
0.0
  0
VERTEX
  5
3EF
  8
DATA
  6
CONTINUOUS
 62
     7
 10
-25.960579381167751
 20
101.8870017934307
 30
0.0
  0
VERTEX
  5
3F0
  8
DATA
  6
CONTINUOUS
 62
     7
 10
-26.073328325737769
 20
101.7598403758175
 30
0.0
  0
VERTEX
  5
3F1
  8
DATA
  6
CONTINUOUS
 62
     7
 10
-26.245280140314751
 20
101.53046305934819
 30
0.0
  0
VERTEX
  5
3F2
  8
DATA
  6
CONTINUOUS
 62
     7
 10
-26.418193179934661
 20
101.2420692077323
 30
0.0
  0
VERTEX
  5
3F3
  8
DATA
  6
CONTINUOUS
 62
     7
 10
-26.52018112426547
 20
100.98586862526319
 30
0.0
  0
VERTEX
  5
3F4
  8
DATA
  6
CONTINUOUS
 62
     7
 10
-26.582377292704908
 20
100.7069228166342
 30
0.0
  0
VERTEX
  5
3F5
  8
DATA
  6
CONTINUOUS
 62
     7
 10
-26.59331364414107
 20
100.5373196996816
 30
0.0
  0
VERTEX
  5
3F6
  8
DATA
  6
CONTINUOUS
 62
     7
 10
-26.581811539933511
 20
100.420308457757
 30
0.0
  0
SEQEND
  5
3F7
  8
DATA
  6
CONTINUOUS
 62
     7
  0
POLYLINE
  5
1FF
  8
DATA
  6
CONTINUOUS
 62
     7
 66
     1
 10
0.0
 20
0.0
 30
0.0
 70
     1
  0
VERTEX
  5
3F8
  8
DATA
  6
CONTINUOUS
 62
     7
 10
-22.54184202912981
 20
107.9563843093556
 30
0.0
  0
VERTEX
  5
3F9
  8
DATA
  6
CONTINUOUS
 62
     7
 10
-21.995662714024402
 20
107.1986909294577
 30
0.0
  0
VERTEX
  5
3FA
  8
DATA
  6
CONTINUOUS
 62
     7
 10
-22.542444781412339
 20
106.25163660807419
 30
0.0
  0
VERTEX
  5
3FB
  8
DATA
  6
CONTINUOUS
 62
     7
 10
-23.458506083280181
 20
106.36867559409509
 30
0.0
  0
VERTEX
  5
3FC
  8
DATA
  6
CONTINUOUS
 62
     7
 10
-23.848224007856491
 20
105.6936643481087
 30
0.0
  0
VERTEX
  5
3FD
  8
DATA
  6
CONTINUOUS
 62
     7
 10
-20.54941885355441
 20
105.4073624796299
 30
0.0
  0
VERTEX
  5
3FE
  8
DATA
  6
CONTINUOUS
 62
     7
 10
-20.254776836148949
 20
105.9176974238208
 30
0.0
  0
VERTEX
  5
3FF
  8
DATA
  6
CONTINUOUS
 62
     7
 10
-22.181724007856499
 20
108.5801270189222
 30
0.0
  0
SEQEND
  5
400
  8
DATA
  6
CONTINUOUS
 62
     7
  0
POLYLINE
  5
20A
  8
DATA
  6
CONTINUOUS
 62
     7
 66
     1
 10
0.0
 20
0.0
 30
0.0
 70
     1
  0
VERTEX
  5
401
  8
DATA
  6
CONTINUOUS
 62
     7
 10
-21.58638421130124
 20
106.80548873832031
 30
0.0
  0
VERTEX
  5
402
  8
DATA
  6
CONTINUOUS
 62
     7
 10
-21.949862239687128
 20
106.17592632572099
 30
0.0
  0
VERTEX
  5
403
  8
DATA
  6
CONTINUOUS
 62
     7
 10
-21.269697366867689
 20
106.18795164711921
 30
0.0
  0
SEQEND
  5
404
  8
DATA
  6
CONTINUOUS
 62
     7
  0
CIRCLE
  5
210
  8
DATA
  6
CONTINUOUS
 62
     7
 10
0.0
 20
0.4999999999999846
 30
0.0
 40
1.5499999999999869
  0
CIRCLE
  5
211
  8
DATA
  6
CONTINUOUS
 62
     7
 10
0.0
 20
0.4999999999999846
 30
0.0
 40
3.0
  0
CIRCLE
  5
212
  8
DATA
  6
CONTINUOUS
 62
     7
 10
0.0
 20
90.0
 30
0.0
 40
8.8000000000000007
  0
CIRCLE
  5
213
  8
DATA
  6
CONTINUOUS
 62
     7
 10
24.650000000000031
 20
75.768315864475767
 30
0.0
 40
1.5999999999999921
  0
CIRCLE
  5
214
  8
DATA
  6
CONTINUOUS
 62
     7
 10
-0.0000000000000071
 20
118.46336827104849
 30
0.0
 40
1.600000000000005
  0
CIRCLE
  5
215
  8
DATA
  6
CONTINUOUS
 62
     7
 10
-24.649999999999999
 20
75.768315864475738
 30
0.0
 40
1.599999999999997
  0
CIRCLE
  5
216
  8
DATA
  6
CONTINUOUS
 62
     7
 10
-0.0000000000000071
 20
118.46336827104849
 30
0.0
 40
2.9999999999999991
  0
CIRCLE
  5
217
  8
DATA
  6
CONTINUOUS
 62
     7
 10
-24.649999999999999
 20
75.768315864475738
 30
0.0
 40
2.9999999999999969
  0
CIRCLE
  5
218
  8
DATA
  6
CONTINUOUS
 62
     7
 10
24.650000000000031
 20
75.768315864475767
 30
0.0
 40
2.9999999999999898
  0
CIRCLE
  5
219
  8
DATA
  6
CONTINUOUS
 62
     7
 10
0.0000000000000041
 20
-120.0
 30
0.0
 40
32.549999999999997
  0
CIRCLE
  5
21A
  8
DATA
  6
CONTINUOUS
 62
     7
 10
24.649999999999999
 20
-105.7683158644757
 30
0.0
 40
1.5999999999999941
  0
CIRCLE
  5
21B
  8
DATA
  6
CONTINUOUS
 62
     7
 10
-24.650000000000031
 20
-105.7683158644757
 30
0.0
 40
1.6000000000000081
  0
CIRCLE
  5
21C
  8
DATA
  6
CONTINUOUS
 62
     7
 10
-0.0000000000000102
 20
-148.46336827104849
 30
0.0
 40
1.600000000000013
  0
CIRCLE
  5
21D
  8
DATA
  6
CONTINUOUS
 62
     7
 10
-13.82468245269451
 20
-112.0183158644757
 30
0.0
 40
3.5
  0
CIRCLE
  5
21E
  8
DATA
  6
CONTINUOUS
 62
     7
 10
-13.824682452694461
 20
-112.0183158644757
 30
0.0
 40
1.5
  0
CIRCLE
  5
21F
  8
DATA
  6
CONTINUOUS
 62
     7
 10
-0.000000000000003
 20
-135.96336827104849
 30
0.0
 40
3.4999999999999849
  0
CIRCLE
  5
220
  8
DATA
  6
CONTINUOUS
 62
     7
 10
-0.000000000000003
 20
-135.96336827104849
 30
0.0
 40
1.5
  0
LINE
  5
221
  8
DATA
  6
STYLE_06
 62
     7
 10
0.0000000000000041
 20
-85.0
 30
0.0
 11
0.0000000000000041
 21
-155.0
 31
0.0
  0
LINE
  5
222
  8
DATA
  6
STYLE_06
 62
     7
 10
-30.310889132455362
 20
-137.5
 30
0.0
 11
30.310889132455362
 21
-102.5
 31
0.0
  0
LINE
  5
223
  8
DATA
  6
STYLE_06
 62
     7
 10
30.310889132455362
 20
-137.5
 30
0.0
 11
-30.31088913245533
 21
-102.5
 31
0.0
  0
ENDSEC
  0
EOF
